  0
SECTION
  2
ENTITIES
999
- - - Grid Lines - - -
  0
LINE
  8
0
 62
9
 10
0.000
 20
59800.000
 30
0
 11
0.000
 21
59200.000
 31
0
  0
LINE
  8
0
 62
9
 10
200.000
 20
59800.000
 30
0
 11
200.000
 21
59200.000
 31
0
  0
LINE
  8
0
 62
9
 10
400.000
 20
59800.000
 30
0
 11
400.000
 21
59200.000
 31
0
  0
LINE
  8
0
 62
9
 10
600.000
 20
59800.000
 30
0
 11
600.000
 21
59200.000
 31
0
  0
LINE
  8
0
 62
9
 10
800.000
 20
59800.000
 30
0
 11
800.000
 21
59200.000
 31
0
  0
LINE
  8
0
 62
9
 10
1000.000
 20
59800.000
 30
0
 11
1000.000
 21
59200.000
 31
0
  0
LINE
  8
0
 62
9
 10
1200.000
 20
59800.000
 30
0
 11
1200.000
 21
59200.000
 31
0
  0
LINE
  8
0
 62
9
 10
0.000
 20
59200.000
 30
0
 11
1200.000
 21
59200.000
 31
0
  0
LINE
  8
0
 62
9
 10
0.000
 20
59300.000
 30
0
 11
1200.000
 21
59300.000
 31
0
  0
LINE
  8
0
 62
9
 10
0.000
 20
59400.000
 30
0
 11
1200.000
 21
59400.000
 31
0
  0
LINE
  8
0
 62
9
 10
0.000
 20
59500.000
 30
0
 11
1200.000
 21
59500.000
 31
0
  0
LINE
  8
0
 62
9
 10
0.000
 20
59600.000
 30
0
 11
1200.000
 21
59600.000
 31
0
  0
LINE
  8
0
 62
9
 10
0.000
 20
59700.000
 30
0
 11
1200.000
 21
59700.000
 31
0
  0
LINE
  8
0
 62
9
 10
0.000
 20
59800.000
 30
0
 11
1200.000
 21
59800.000
 31
0
  0
LINE
  8
0
 62
9
 10
40.000
 20
59800.000
 30
0
 11
40.000
 21
59200.000
 31
0
  0
LINE
  8
0
 62
9
 10
80.000
 20
59800.000
 30
0
 11
80.000
 21
59200.000
 31
0
  0
LINE
  8
0
 62
9
 10
120.000
 20
59800.000
 30
0
 11
120.000
 21
59200.000
 31
0
  0
LINE
  8
0
 62
9
 10
160.000
 20
59800.000
 30
0
 11
160.000
 21
59200.000
 31
0
  0
LINE
  8
0
 62
9
 10
240.000
 20
59800.000
 30
0
 11
240.000
 21
59200.000
 31
0
  0
LINE
  8
0
 62
9
 10
280.000
 20
59800.000
 30
0
 11
280.000
 21
59200.000
 31
0
  0
LINE
  8
0
 62
9
 10
320.000
 20
59800.000
 30
0
 11
320.000
 21
59200.000
 31
0
  0
LINE
  8
0
 62
9
 10
360.000
 20
59800.000
 30
0
 11
360.000
 21
59200.000
 31
0
  0
LINE
  8
0
 62
9
 10
440.000
 20
59800.000
 30
0
 11
440.000
 21
59200.000
 31
0
  0
LINE
  8
0
 62
9
 10
480.000
 20
59800.000
 30
0
 11
480.000
 21
59200.000
 31
0
  0
LINE
  8
0
 62
9
 10
520.000
 20
59800.000
 30
0
 11
520.000
 21
59200.000
 31
0
  0
LINE
  8
0
 62
9
 10
560.000
 20
59800.000
 30
0
 11
560.000
 21
59200.000
 31
0
  0
LINE
  8
0
 62
9
 10
640.000
 20
59800.000
 30
0
 11
640.000
 21
59200.000
 31
0
  0
LINE
  8
0
 62
9
 10
680.000
 20
59800.000
 30
0
 11
680.000
 21
59200.000
 31
0
  0
LINE
  8
0
 62
9
 10
720.000
 20
59800.000
 30
0
 11
720.000
 21
59200.000
 31
0
  0
LINE
  8
0
 62
9
 10
760.000
 20
59800.000
 30
0
 11
760.000
 21
59200.000
 31
0
  0
LINE
  8
0
 62
9
 10
840.000
 20
59800.000
 30
0
 11
840.000
 21
59200.000
 31
0
  0
LINE
  8
0
 62
9
 10
880.000
 20
59800.000
 30
0
 11
880.000
 21
59200.000
 31
0
  0
LINE
  8
0
 62
9
 10
920.000
 20
59800.000
 30
0
 11
920.000
 21
59200.000
 31
0
  0
LINE
  8
0
 62
9
 10
960.000
 20
59800.000
 30
0
 11
960.000
 21
59200.000
 31
0
  0
LINE
  8
0
 62
9
 10
1040.000
 20
59800.000
 30
0
 11
1040.000
 21
59200.000
 31
0
  0
LINE
  8
0
 62
9
 10
1080.000
 20
59800.000
 30
0
 11
1080.000
 21
59200.000
 31
0
  0
LINE
  8
0
 62
9
 10
1120.000
 20
59800.000
 30
0
 11
1120.000
 21
59200.000
 31
0
  0
LINE
  8
0
 62
9
 10
1160.000
 20
59800.000
 30
0
 11
1160.000
 21
59200.000
 31
0
  0
LINE
  8
0
 62
9
 10
0.000
 20
59220.000
 30
0
 11
1200.000
 21
59220.000
 31
0
  0
LINE
  8
0
 62
9
 10
0.000
 20
59240.000
 30
0
 11
1200.000
 21
59240.000
 31
0
  0
LINE
  8
0
 62
9
 10
0.000
 20
59260.000
 30
0
 11
1200.000
 21
59260.000
 31
0
  0
LINE
  8
0
 62
9
 10
0.000
 20
59280.000
 30
0
 11
1200.000
 21
59280.000
 31
0
  0
LINE
  8
0
 62
9
 10
0.000
 20
59320.000
 30
0
 11
1200.000
 21
59320.000
 31
0
  0
LINE
  8
0
 62
9
 10
0.000
 20
59340.000
 30
0
 11
1200.000
 21
59340.000
 31
0
  0
LINE
  8
0
 62
9
 10
0.000
 20
59360.000
 30
0
 11
1200.000
 21
59360.000
 31
0
  0
LINE
  8
0
 62
9
 10
0.000
 20
59380.000
 30
0
 11
1200.000
 21
59380.000
 31
0
  0
LINE
  8
0
 62
9
 10
0.000
 20
59420.000
 30
0
 11
1200.000
 21
59420.000
 31
0
  0
LINE
  8
0
 62
9
 10
0.000
 20
59440.000
 30
0
 11
1200.000
 21
59440.000
 31
0
  0
LINE
  8
0
 62
9
 10
0.000
 20
59460.000
 30
0
 11
1200.000
 21
59460.000
 31
0
  0
LINE
  8
0
 62
9
 10
0.000
 20
59480.000
 30
0
 11
1200.000
 21
59480.000
 31
0
  0
LINE
  8
0
 62
9
 10
0.000
 20
59520.000
 30
0
 11
1200.000
 21
59520.000
 31
0
  0
LINE
  8
0
 62
9
 10
0.000
 20
59540.000
 30
0
 11
1200.000
 21
59540.000
 31
0
  0
LINE
  8
0
 62
9
 10
0.000
 20
59560.000
 30
0
 11
1200.000
 21
59560.000
 31
0
  0
LINE
  8
0
 62
9
 10
0.000
 20
59580.000
 30
0
 11
1200.000
 21
59580.000
 31
0
  0
LINE
  8
0
 62
9
 10
0.000
 20
59620.000
 30
0
 11
1200.000
 21
59620.000
 31
0
  0
LINE
  8
0
 62
9
 10
0.000
 20
59640.000
 30
0
 11
1200.000
 21
59640.000
 31
0
  0
LINE
  8
0
 62
9
 10
0.000
 20
59660.000
 30
0
 11
1200.000
 21
59660.000
 31
0
  0
LINE
  8
0
 62
9
 10
0.000
 20
59680.000
 30
0
 11
1200.000
 21
59680.000
 31
0
  0
LINE
  8
0
 62
9
 10
0.000
 20
59720.000
 30
0
 11
1200.000
 21
59720.000
 31
0
  0
LINE
  8
0
 62
9
 10
0.000
 20
59740.000
 30
0
 11
1200.000
 21
59740.000
 31
0
  0
LINE
  8
0
 62
9
 10
0.000
 20
59760.000
 30
0
 11
1200.000
 21
59760.000
 31
0
  0
LINE
  8
0
 62
9
 10
0.000
 20
59780.000
 30
0
 11
1200.000
 21
59780.000
 31
0
  0
LINE
  8
0
 62
7
 10
0.000
 20
59200.000
 30
0
 11
0.000
 21
59800.000
 31
0
  0
LINE
  8
0
 62
7
 10
0.000
 20
59800.000
 30
0
 11
1200.000
 21
59800.000
 31
0
  0
LINE
  8
0
 62
7
 10
1200.000
 20
59800.000
 30
0
 11
1200.000
 21
59200.000
 31
0
  0
LINE
  8
0
 62
7
 10
1200.000
 20
59200.000
 30
0
 11
0.000
 21
59200.000
 31
0
999
- - - Axis - - -
  0
LINE
  8
0
 62
7
 10
0.000
 20
59200.000
 30
0
 11
0.000
 21
59800.000
 31
0
  0
LINE
  8
0
 62
7
 10
0.000
 20
59200.000
 30
0
 11
1200.000
 21
59200.000
 31
0
  0
LINE
  8
0
 62
7
 10
0.000
 20
59200.000
 30
0
 11
0.000
 21
59196.997
 31
0
  0
Text
  8
0
 10
0.000
 20
59195.496
 30
0
 40
7.507331
 50
0
  1
0
 72
1
 11
0.000
 21
59195.496
 31
0
 73
3
  0
LINE
  8
0
 62
7
 10
200.000
 20
59200.000
 30
0
 11
200.000
 21
59196.997
 31
0
  0
Text
  8
0
 10
200.000
 20
59195.496
 30
0
 40
7.507331
 50
0
  1
200
 72
1
 11
200.000
 21
59195.496
 31
0
 73
3
  0
LINE
  8
0
 62
7
 10
400.000
 20
59200.000
 30
0
 11
400.000
 21
59196.997
 31
0
  0
Text
  8
0
 10
400.000
 20
59195.496
 30
0
 40
7.507331
 50
0
  1
400
 72
1
 11
400.000
 21
59195.496
 31
0
 73
3
  0
LINE
  8
0
 62
7
 10
600.000
 20
59200.000
 30
0
 11
600.000
 21
59196.997
 31
0
  0
Text
  8
0
 10
600.000
 20
59195.496
 30
0
 40
7.507331
 50
0
  1
600
 72
1
 11
600.000
 21
59195.496
 31
0
 73
3
  0
LINE
  8
0
 62
7
 10
800.000
 20
59200.000
 30
0
 11
800.000
 21
59196.997
 31
0
  0
Text
  8
0
 10
800.000
 20
59195.496
 30
0
 40
7.507331
 50
0
  1
800
 72
1
 11
800.000
 21
59195.496
 31
0
 73
3
  0
LINE
  8
0
 62
7
 10
1000.000
 20
59200.000
 30
0
 11
1000.000
 21
59196.997
 31
0
  0
Text
  8
0
 10
1000.000
 20
59195.496
 30
0
 40
7.507331
 50
0
  1
1000
 72
1
 11
1000.000
 21
59195.496
 31
0
 73
3
  0
LINE
  8
0
 62
7
 10
1200.000
 20
59200.000
 30
0
 11
1200.000
 21
59196.997
 31
0
  0
Text
  8
0
 10
1200.000
 20
59195.496
 30
0
 40
7.507331
 50
0
  1
1200
 72
1
 11
1200.000
 21
59195.496
 31
0
 73
3
  0
LINE
  8
0
 62
7
 10
40.000
 20
59200.000
 30
0
 11
40.000
 21
59198.123
 31
0
  0
LINE
  8
0
 62
7
 10
80.000
 20
59200.000
 30
0
 11
80.000
 21
59198.123
 31
0
  0
LINE
  8
0
 62
7
 10
120.000
 20
59200.000
 30
0
 11
120.000
 21
59198.123
 31
0
  0
LINE
  8
0
 62
7
 10
160.000
 20
59200.000
 30
0
 11
160.000
 21
59198.123
 31
0
  0
LINE
  8
0
 62
7
 10
240.000
 20
59200.000
 30
0
 11
240.000
 21
59198.123
 31
0
  0
LINE
  8
0
 62
7
 10
280.000
 20
59200.000
 30
0
 11
280.000
 21
59198.123
 31
0
  0
LINE
  8
0
 62
7
 10
320.000
 20
59200.000
 30
0
 11
320.000
 21
59198.123
 31
0
  0
LINE
  8
0
 62
7
 10
360.000
 20
59200.000
 30
0
 11
360.000
 21
59198.123
 31
0
  0
LINE
  8
0
 62
7
 10
440.000
 20
59200.000
 30
0
 11
440.000
 21
59198.123
 31
0
  0
LINE
  8
0
 62
7
 10
480.000
 20
59200.000
 30
0
 11
480.000
 21
59198.123
 31
0
  0
LINE
  8
0
 62
7
 10
520.000
 20
59200.000
 30
0
 11
520.000
 21
59198.123
 31
0
  0
LINE
  8
0
 62
7
 10
560.000
 20
59200.000
 30
0
 11
560.000
 21
59198.123
 31
0
  0
LINE
  8
0
 62
7
 10
640.000
 20
59200.000
 30
0
 11
640.000
 21
59198.123
 31
0
  0
LINE
  8
0
 62
7
 10
680.000
 20
59200.000
 30
0
 11
680.000
 21
59198.123
 31
0
  0
LINE
  8
0
 62
7
 10
720.000
 20
59200.000
 30
0
 11
720.000
 21
59198.123
 31
0
  0
LINE
  8
0
 62
7
 10
760.000
 20
59200.000
 30
0
 11
760.000
 21
59198.123
 31
0
  0
LINE
  8
0
 62
7
 10
840.000
 20
59200.000
 30
0
 11
840.000
 21
59198.123
 31
0
  0
LINE
  8
0
 62
7
 10
880.000
 20
59200.000
 30
0
 11
880.000
 21
59198.123
 31
0
  0
LINE
  8
0
 62
7
 10
920.000
 20
59200.000
 30
0
 11
920.000
 21
59198.123
 31
0
  0
LINE
  8
0
 62
7
 10
960.000
 20
59200.000
 30
0
 11
960.000
 21
59198.123
 31
0
  0
LINE
  8
0
 62
7
 10
1040.000
 20
59200.000
 30
0
 11
1040.000
 21
59198.123
 31
0
  0
LINE
  8
0
 62
7
 10
1080.000
 20
59200.000
 30
0
 11
1080.000
 21
59198.123
 31
0
  0
LINE
  8
0
 62
7
 10
1120.000
 20
59200.000
 30
0
 11
1120.000
 21
59198.123
 31
0
  0
LINE
  8
0
 62
7
 10
1160.000
 20
59200.000
 30
0
 11
1160.000
 21
59198.123
 31
0
  0
LINE
  8
0
 62
7
 10
0.000
 20
59200.000
 30
0
 11
-3.003
 21
59200.000
 31
0
  0
Text
  8
0
 10
-6.006
 20
59200.000
 30
0
 40
7.507331
 50
0
  1
5920
 72
2
 11
-6.006
 21
59200.000
 31
0
 73
2
  0
LINE
  8
0
 62
7
 10
0.000
 20
59300.000
 30
0
 11
-3.003
 21
59300.000
 31
0
  0
Text
  8
0
 10
-6.006
 20
59300.000
 30
0
 40
7.507331
 50
0
  1
5930
 72
2
 11
-6.006
 21
59300.000
 31
0
 73
2
  0
LINE
  8
0
 62
7
 10
0.000
 20
59400.000
 30
0
 11
-3.003
 21
59400.000
 31
0
  0
Text
  8
0
 10
-6.006
 20
59400.000
 30
0
 40
7.507331
 50
0
  1
5940
 72
2
 11
-6.006
 21
59400.000
 31
0
 73
2
  0
LINE
  8
0
 62
7
 10
0.000
 20
59500.000
 30
0
 11
-3.003
 21
59500.000
 31
0
  0
Text
  8
0
 10
-6.006
 20
59500.000
 30
0
 40
7.507331
 50
0
  1
5950
 72
2
 11
-6.006
 21
59500.000
 31
0
 73
2
  0
LINE
  8
0
 62
7
 10
0.000
 20
59600.000
 30
0
 11
-3.003
 21
59600.000
 31
0
  0
Text
  8
0
 10
-6.006
 20
59600.000
 30
0
 40
7.507331
 50
0
  1
5960
 72
2
 11
-6.006
 21
59600.000
 31
0
 73
2
  0
LINE
  8
0
 62
7
 10
0.000
 20
59700.000
 30
0
 11
-3.003
 21
59700.000
 31
0
  0
Text
  8
0
 10
-6.006
 20
59700.000
 30
0
 40
7.507331
 50
0
  1
5970
 72
2
 11
-6.006
 21
59700.000
 31
0
 73
2
  0
LINE
  8
0
 62
7
 10
0.000
 20
59800.000
 30
0
 11
-3.003
 21
59800.000
 31
0
  0
Text
  8
0
 10
-6.006
 20
59800.000
 30
0
 40
7.507331
 50
0
  1
5980
 72
2
 11
-6.006
 21
59800.000
 31
0
 73
2
  0
LINE
  8
0
 62
7
 10
0.000
 20
59220.000
 30
0
 11
-1.877
 21
59220.000
 31
0
  0
LINE
  8
0
 62
7
 10
0.000
 20
59240.000
 30
0
 11
-1.877
 21
59240.000
 31
0
  0
LINE
  8
0
 62
7
 10
0.000
 20
59260.000
 30
0
 11
-1.877
 21
59260.000
 31
0
  0
LINE
  8
0
 62
7
 10
0.000
 20
59280.000
 30
0
 11
-1.877
 21
59280.000
 31
0
  0
LINE
  8
0
 62
7
 10
0.000
 20
59320.000
 30
0
 11
-1.877
 21
59320.000
 31
0
  0
LINE
  8
0
 62
7
 10
0.000
 20
59340.000
 30
0
 11
-1.877
 21
59340.000
 31
0
  0
LINE
  8
0
 62
7
 10
0.000
 20
59360.000
 30
0
 11
-1.877
 21
59360.000
 31
0
  0
LINE
  8
0
 62
7
 10
0.000
 20
59380.000
 30
0
 11
-1.877
 21
59380.000
 31
0
  0
LINE
  8
0
 62
7
 10
0.000
 20
59420.000
 30
0
 11
-1.877
 21
59420.000
 31
0
  0
LINE
  8
0
 62
7
 10
0.000
 20
59440.000
 30
0
 11
-1.877
 21
59440.000
 31
0
  0
LINE
  8
0
 62
7
 10
0.000
 20
59460.000
 30
0
 11
-1.877
 21
59460.000
 31
0
  0
LINE
  8
0
 62
7
 10
0.000
 20
59480.000
 30
0
 11
-1.877
 21
59480.000
 31
0
  0
LINE
  8
0
 62
7
 10
0.000
 20
59520.000
 30
0
 11
-1.877
 21
59520.000
 31
0
  0
LINE
  8
0
 62
7
 10
0.000
 20
59540.000
 30
0
 11
-1.877
 21
59540.000
 31
0
  0
LINE
  8
0
 62
7
 10
0.000
 20
59560.000
 30
0
 11
-1.877
 21
59560.000
 31
0
  0
LINE
  8
0
 62
7
 10
0.000
 20
59580.000
 30
0
 11
-1.877
 21
59580.000
 31
0
  0
LINE
  8
0
 62
7
 10
0.000
 20
59620.000
 30
0
 11
-1.877
 21
59620.000
 31
0
  0
LINE
  8
0
 62
7
 10
0.000
 20
59640.000
 30
0
 11
-1.877
 21
59640.000
 31
0
  0
LINE
  8
0
 62
7
 10
0.000
 20
59660.000
 30
0
 11
-1.877
 21
59660.000
 31
0
  0
LINE
  8
0
 62
7
 10
0.000
 20
59680.000
 30
0
 11
-1.877
 21
59680.000
 31
0
  0
LINE
  8
0
 62
7
 10
0.000
 20
59720.000
 30
0
 11
-1.877
 21
59720.000
 31
0
  0
LINE
  8
0
 62
7
 10
0.000
 20
59740.000
 30
0
 11
-1.877
 21
59740.000
 31
0
  0
LINE
  8
0
 62
7
 10
0.000
 20
59760.000
 30
0
 11
-1.877
 21
59760.000
 31
0
  0
LINE
  8
0
 62
7
 10
0.000
 20
59780.000
 30
0
 11
-1.877
 21
59780.000
 31
0
  0
Text
  8
0
 10
600.000
 20
59814.076
 30
0
 40
7.507331
 50
0
  1
Geom: Existing Cimarron Bijou 2002    Flow: Existing Flows
 72
1
 11
600.000
 21
59814.076
 31
0
 73
3
  0
Text
  8
0
 10
600.000
 20
59832.845
 30
0
 40
9.384165
 50
0
  1
Cimarron Bijou 2002       Plan: Plan 03    
 72
1
 11
600.000
 21
59832.845
 31
0
 73
3
  0
Text
  8
0
 10
600.000
 20
59168.534
 30
0
 40
7.507331
 50
0
  1
Main Channel Distance (ft)
 72
1
 11
600.000
 21
59168.534
 31
0
 73
3
  0
Text
  8
0
 10
-45.044
 20
59500.000
 30
0
 40
7.507331
 50
90
  1
Elevation (ft)
 72
1
 11
-45.044
 21
59500.000
 31
0
 73
3
999
- - - Legend - - -
  0
Text
  8
0
 10
1256.305
 20
59796.246
 30
0
 40
7.507331
 50
0
  1
Legend
 72
1
 11
1256.305
 21
59796.246
 31
0
 73
3
  0
LINE
  8
0
 62
7
 10
1215.015
 20
59784.985
 30
0
 11
1297.595
 21
59784.985
 31
0
  0
LINE
  8
0
 62
4
 10
1215.015
 20
59773.724
 30
0
 11
1297.595
 21
59773.724
 31
0
  0
LINE
  8
0
 62
4
 10
1255.249
 20
59772.669
 30
0
 11
1257.361
 21
59774.780
 31
0
  0
LINE
  8
0
 62
4
 10
1255.249
 20
59774.780
 30
0
 11
1257.361
 21
59772.669
 31
0
  0
Text
  8
0
 10
1256.305
 20
59766.217
 30
0
 40
7.507331
 50
0
  1
WS  500-yr.
 72
1
 11
1256.305
 21
59766.217
 31
0
 73
3
  0
LINE
  8
0
 62
4
 10
1215.015
 20
59754.956
 30
0
 11
1297.595
 21
59754.956
 31
0
  0
Text
  8
0
 10
1256.305
 20
59747.449
 30
0
 40
7.507331
 50
0
  1
WS  100yr ex
 72
1
 11
1256.305
 21
59747.449
 31
0
 73
3
  0
LINE
  8
0
 62
4
 10
1215.015
 20
59736.188
 30
0
 11
1297.595
 21
59736.188
 31
0
  0
LINE
  8
0
 62
4
 10
1255.249
 20
59736.891
 30
0
 11
1257.361
 21
59736.891
 31
0
  0
LINE
  8
0
 62
4
 10
1256.305
 20
59734.780
 30
0
 11
1257.361
 21
59736.891
 31
0
  0
LINE
  8
0
 62
4
 10
1256.305
 20
59734.780
 30
0
 11
1255.249
 21
59736.891
 31
0
  0
Text
  8
0
 10
1256.305
 20
59728.680
 30
0
 40
7.507331
 50
0
  1
WS  50-yr ex
 72
1
 11
1256.305
 21
59728.680
 31
0
 73
3
  0
LINE
  8
0
 62
4
 10
1215.015
 20
59717.419
 30
0
 11
1297.595
 21
59717.419
 31
0
  0
LINE
  8
0
 62
4
 10
1255.249
 20
59716.716
 30
0
 11
1257.361
 21
59716.716
 31
0
  0
LINE
  8
0
 62
4
 10
1256.305
 20
59718.827
 30
0
 11
1257.361
 21
59716.716
 31
0
  0
LINE
  8
0
 62
4
 10
1256.305
 20
59718.827
 30
0
 11
1255.249
 21
59716.716
 31
0
  0
Text
  8
0
 10
1256.305
 20
59709.912
 30
0
 40
7.507331
 50
0
  1
WS  10-yr ex
 72
1
 11
1256.305
 21
59709.912
 31
0
 73
3
  0
LINE
  8
0
 62
7
 10
1215.015
 20
59698.651
 30
0
 11
1297.595
 21
59698.651
 31
0
  0
LINE
  8
0
 62
7
 10
1255.249
 20
59697.595
 30
0
 11
1255.249
 21
59699.707
 31
0
  0
LINE
  8
0
 62
7
 10
1255.249
 20
59699.707
 30
0
 11
1257.361
 21
59699.707
 31
0
  0
LINE
  8
0
 62
7
 10
1257.361
 20
59699.707
 30
0
 11
1257.361
 21
59697.595
 31
0
  0
LINE
  8
0
 62
7
 10
1257.361
 20
59697.595
 30
0
 11
1255.249
 21
59697.595
 31
0
  0
Text
  8
0
 10
1256.305
 20
59691.144
 30
0
 40
7.507331
 50
0
  1
Ground
 72
1
 11
1256.305
 21
59691.144
 31
0
 73
3
  0
LINE
  8
0
 62
7
 10
1207.507
 20
59800.000
 30
0
 11
1305.103
 21
59800.000
 31
0
  0
LINE
  8
0
 62
7
 10
1305.103
 20
59800.000
 30
0
 11
1305.103
 21
59679.883
 31
0
  0
LINE
  8
0
 62
7
 10
1207.507
 20
59800.000
 30
0
 11
1207.507
 21
59679.883
 31
0
  0
LINE
  8
0
 62
7
 10
1305.103
 20
59679.883
 30
0
 11
1207.507
 21
59679.883
 31
0
999
- - - Line Data - - -
999
- - - Line Data - - -
  0
LINE
  8
0
 62
7
 10
138.000
 20
59298.799
 30
0
 11
138.000
 21
59440.000
 31
0
  0
LINE
  8
0
 62
7
 10
138.000
 20
59440.000
 30
0
 11
256.000
 21
59480.000
 31
0
  0
LINE
  8
0
 62
7
 10
256.000
 20
59480.000
 30
0
 11
256.000
 21
59336.099
 31
0
  0
LINE
  8
0
 62
7
 10
256.000
 20
59336.099
 30
0
 11
138.000
 21
59298.799
 31
0
999
- - - Line Data - - -
  0
LINE
  8
0
 62
7
 10
321.000
 20
59500.000
 30
0
 11
296.000
 21
59461.001
 31
0
  0
LINE
  8
0
 62
7
 10
296.000
 20
59461.001
 30
0
 11
266.000
 21
59461.001
 31
0
  0
LINE
  8
0
 62
7
 10
266.000
 20
59461.001
 30
0
 11
251.000
 21
59490.000
 31
0
  0
LINE
  8
0
 62
7
 10
251.000
 20
59490.000
 30
0
 11
251.000
 21
59332.240
 31
0
  0
LINE
  8
0
 62
7
 10
251.000
 20
59332.240
 30
0
 11
266.000
 21
59336.099
 31
0
  0
LINE
  8
0
 62
7
 10
266.000
 20
59336.099
 30
0
 11
321.000
 21
59357.784
 31
0
  0
LINE
  8
0
 62
7
 10
321.000
 20
59357.784
 30
0
 11
321.000
 21
59500.000
 31
0
999
- - - Line Data - - -
  0
LINE
  8
0
 62
7
 10
138.000
 20
59320.000
 30
0
 11
138.000
 21
59420.000
 31
0
  0
LINE
  8
0
 62
7
 10
138.000
 20
59420.000
 30
0
 11
256.000
 21
59435.000
 31
0
  0
LINE
  8
0
 62
7
 10
256.000
 20
59435.000
 30
0
 11
256.000
 21
59335.000
 31
0
  0
LINE
  8
0
 62
7
 10
256.000
 20
59335.000
 30
0
 11
138.000
 21
59320.000
 31
0
999
- - - Line Data - - -
  0
LINE
  8
0
 62
7
 10
121.000
 20
59298.799
 30
0
 11
138.000
 21
59298.799
 31
0
  0
LINE
  8
0
 62
7
 10
138.000
 20
59298.799
 30
0
 11
256.000
 21
59336.099
 31
0
  0
LINE
  8
0
 62
7
 10
256.000
 20
59336.099
 30
0
 11
266.000
 21
59336.099
 31
0
  0
LINE
  8
0
 62
7
 10
266.000
 20
59336.099
 30
0
 11
441.000
 21
59405.098
 31
0
  0
LINE
  8
0
 62
7
 10
441.000
 20
59405.098
 30
0
 11
584.000
 21
59479.502
 31
0
  0
LINE
  8
0
 62
7
 10
584.000
 20
59479.502
 30
0
 11
614.000
 21
59500.098
 31
0
  0
LINE
  8
0
 62
7
 10
614.000
 20
59500.098
 30
0
 11
774.000
 21
59580.098
 31
0
  0
LINE
  8
0
 62
7
 10
774.000
 20
59580.098
 30
0
 11
804.000
 21
59586.099
 31
0
  0
LINE
  8
0
 62
7
 10
804.000
 20
59586.099
 30
0
 11
1064.000
 21
59620.098
 31
0
999
- - - Symbol Data - - -
  0
LINE
  8
0
 62
7
 10
119.944
 20
59297.743
 30
0
 11
119.944
 21
59299.855
 31
0
  0
LINE
  8
0
 62
7
 10
119.944
 20
59299.855
 30
0
 11
122.056
 21
59299.855
 31
0
  0
LINE
  8
0
 62
7
 10
122.056
 20
59299.855
 30
0
 11
122.056
 21
59297.743
 31
0
  0
LINE
  8
0
 62
7
 10
122.056
 20
59297.743
 30
0
 11
119.944
 21
59297.743
 31
0
  0
LINE
  8
0
 62
7
 10
136.944
 20
59297.743
 30
0
 11
136.944
 21
59299.855
 31
0
  0
LINE
  8
0
 62
7
 10
136.944
 20
59299.855
 30
0
 11
139.056
 21
59299.855
 31
0
  0
LINE
  8
0
 62
7
 10
139.056
 20
59299.855
 30
0
 11
139.056
 21
59297.743
 31
0
  0
LINE
  8
0
 62
7
 10
139.056
 20
59297.743
 30
0
 11
136.944
 21
59297.743
 31
0
  0
LINE
  8
0
 62
7
 10
254.944
 20
59335.043
 30
0
 11
254.944
 21
59337.154
 31
0
  0
LINE
  8
0
 62
7
 10
254.944
 20
59337.154
 30
0
 11
257.056
 21
59337.154
 31
0
  0
LINE
  8
0
 62
7
 10
257.056
 20
59337.154
 30
0
 11
257.056
 21
59335.043
 31
0
  0
LINE
  8
0
 62
7
 10
257.056
 20
59335.043
 30
0
 11
254.944
 21
59335.043
 31
0
  0
LINE
  8
0
 62
7
 10
264.944
 20
59335.043
 30
0
 11
264.944
 21
59337.154
 31
0
  0
LINE
  8
0
 62
7
 10
264.944
 20
59337.154
 30
0
 11
267.056
 21
59337.154
 31
0
  0
LINE
  8
0
 62
7
 10
267.056
 20
59337.154
 30
0
 11
267.056
 21
59335.043
 31
0
  0
LINE
  8
0
 62
7
 10
267.056
 20
59335.043
 30
0
 11
264.944
 21
59335.043
 31
0
  0
LINE
  8
0
 62
7
 10
439.944
 20
59404.042
 30
0
 11
439.944
 21
59406.153
 31
0
  0
LINE
  8
0
 62
7
 10
439.944
 20
59406.153
 30
0
 11
442.056
 21
59406.153
 31
0
  0
LINE
  8
0
 62
7
 10
442.056
 20
59406.153
 30
0
 11
442.056
 21
59404.042
 31
0
  0
LINE
  8
0
 62
7
 10
442.056
 20
59404.042
 30
0
 11
439.944
 21
59404.042
 31
0
  0
LINE
  8
0
 62
7
 10
582.944
 20
59478.446
 30
0
 11
582.944
 21
59480.558
 31
0
  0
LINE
  8
0
 62
7
 10
582.944
 20
59480.558
 30
0
 11
585.056
 21
59480.558
 31
0
  0
LINE
  8
0
 62
7
 10
585.056
 20
59480.558
 30
0
 11
585.056
 21
59478.446
 31
0
  0
LINE
  8
0
 62
7
 10
585.056
 20
59478.446
 30
0
 11
582.944
 21
59478.446
 31
0
  0
LINE
  8
0
 62
7
 10
612.944
 20
59499.042
 30
0
 11
612.944
 21
59501.153
 31
0
  0
LINE
  8
0
 62
7
 10
612.944
 20
59501.153
 30
0
 11
615.056
 21
59501.153
 31
0
  0
LINE
  8
0
 62
7
 10
615.056
 20
59501.153
 30
0
 11
615.056
 21
59499.042
 31
0
  0
LINE
  8
0
 62
7
 10
615.056
 20
59499.042
 30
0
 11
612.944
 21
59499.042
 31
0
  0
LINE
  8
0
 62
7
 10
772.944
 20
59579.042
 30
0
 11
772.944
 21
59581.153
 31
0
  0
LINE
  8
0
 62
7
 10
772.944
 20
59581.153
 30
0
 11
775.056
 21
59581.153
 31
0
  0
LINE
  8
0
 62
7
 10
775.056
 20
59581.153
 30
0
 11
775.056
 21
59579.042
 31
0
  0
LINE
  8
0
 62
7
 10
775.056
 20
59579.042
 30
0
 11
772.944
 21
59579.042
 31
0
  0
LINE
  8
0
 62
7
 10
802.944
 20
59585.043
 30
0
 11
802.944
 21
59587.154
 31
0
  0
LINE
  8
0
 62
7
 10
802.944
 20
59587.154
 30
0
 11
805.056
 21
59587.154
 31
0
  0
LINE
  8
0
 62
7
 10
805.056
 20
59587.154
 30
0
 11
805.056
 21
59585.043
 31
0
  0
LINE
  8
0
 62
7
 10
805.056
 20
59585.043
 30
0
 11
802.944
 21
59585.043
 31
0
  0
LINE
  8
0
 62
7
 10
1062.944
 20
59619.042
 30
0
 11
1062.944
 21
59621.153
 31
0
  0
LINE
  8
0
 62
7
 10
1062.944
 20
59621.153
 30
0
 11
1065.056
 21
59621.153
 31
0
  0
LINE
  8
0
 62
7
 10
1065.056
 20
59621.153
 30
0
 11
1065.056
 21
59619.042
 31
0
  0
LINE
  8
0
 62
7
 10
1065.056
 20
59619.042
 30
0
 11
1062.944
 21
59619.042
 31
0
999
- - - Line Data - - -
  0
LINE
  8
0
 62
4
 10
121.000
 20
59441.963
 30
0
 11
138.000
 21
59420.000
 31
0
  0
LINE
  8
0
 62
4
 10
138.000
 20
59420.000
 30
0
 11
145.867
 21
59421.001
 31
0
  0
LINE
  8
0
 62
4
 10
145.867
 20
59421.001
 30
0
 11
153.733
 21
59422.002
 31
0
  0
LINE
  8
0
 62
4
 10
153.733
 20
59422.002
 30
0
 11
161.600
 21
59422.998
 31
0
  0
LINE
  8
0
 62
4
 10
161.600
 20
59422.998
 30
0
 11
169.467
 21
59423.999
 31
0
  0
LINE
  8
0
 62
4
 10
169.467
 20
59423.999
 30
0
 11
177.333
 21
59425.000
 31
0
  0
LINE
  8
0
 62
4
 10
177.333
 20
59425.000
 30
0
 11
185.200
 21
59426.001
 31
0
  0
LINE
  8
0
 62
4
 10
185.200
 20
59426.001
 30
0
 11
193.067
 21
59427.002
 31
0
  0
LINE
  8
0
 62
4
 10
193.067
 20
59427.002
 30
0
 11
200.933
 21
59427.998
 31
0
  0
LINE
  8
0
 62
4
 10
200.933
 20
59427.998
 30
0
 11
208.800
 21
59428.999
 31
0
  0
LINE
  8
0
 62
4
 10
208.800
 20
59428.999
 30
0
 11
216.667
 21
59430.000
 31
0
  0
LINE
  8
0
 62
4
 10
216.667
 20
59430.000
 30
0
 11
224.533
 21
59431.001
 31
0
  0
LINE
  8
0
 62
4
 10
224.533
 20
59431.001
 30
0
 11
232.400
 21
59432.002
 31
0
  0
LINE
  8
0
 62
4
 10
232.400
 20
59432.002
 30
0
 11
240.267
 21
59432.998
 31
0
  0
LINE
  8
0
 62
4
 10
240.267
 20
59432.998
 30
0
 11
248.133
 21
59433.999
 31
0
  0
LINE
  8
0
 62
4
 10
248.133
 20
59433.999
 30
0
 11
256.000
 21
59435.000
 31
0
  0
LINE
  8
0
 62
4
 10
256.000
 20
59435.000
 30
0
 11
266.000
 21
59481.655
 31
0
  0
LINE
  8
0
 62
4
 10
266.000
 20
59481.655
 30
0
 11
441.000
 21
59485.122
 31
0
  0
LINE
  8
0
 62
4
 10
441.000
 20
59485.122
 30
0
 11
584.000
 21
59556.646
 31
0
  0
LINE
  8
0
 62
4
 10
584.000
 20
59556.646
 30
0
 11
614.000
 21
59570.371
 31
0
  0
LINE
  8
0
 62
4
 10
614.000
 20
59570.371
 30
0
 11
774.000
 21
59682.393
 31
0
  0
LINE
  8
0
 62
4
 10
774.000
 20
59682.393
 30
0
 11
804.000
 21
59698.931
 31
0
  0
LINE
  8
0
 62
4
 10
804.000
 20
59698.931
 30
0
 11
1064.000
 21
59718.145
 31
0
999
- - - Line Data - - -
  0
LINE
  8
0
 62
4
 10
121.000
 20
59332.207
 30
0
 11
138.000
 21
59346.191
 31
0
  0
LINE
  8
0
 62
4
 10
138.000
 20
59346.191
 30
0
 11
145.867
 21
59347.407
 31
0
  0
LINE
  8
0
 62
4
 10
145.867
 20
59347.407
 30
0
 11
153.733
 21
59348.643
 31
0
  0
LINE
  8
0
 62
4
 10
153.733
 20
59348.643
 30
0
 11
161.600
 21
59349.888
 31
0
  0
LINE
  8
0
 62
4
 10
161.600
 20
59349.888
 30
0
 11
169.467
 21
59351.157
 31
0
  0
LINE
  8
0
 62
4
 10
169.467
 20
59351.157
 30
0
 11
177.333
 21
59352.461
 31
0
  0
LINE
  8
0
 62
4
 10
177.333
 20
59352.461
 30
0
 11
185.200
 21
59353.789
 31
0
  0
LINE
  8
0
 62
4
 10
185.200
 20
59353.789
 30
0
 11
193.067
 21
59355.156
 31
0
  0
LINE
  8
0
 62
4
 10
193.067
 20
59355.156
 30
0
 11
200.933
 21
59356.558
 31
0
  0
LINE
  8
0
 62
4
 10
200.933
 20
59356.558
 30
0
 11
208.800
 21
59358.022
 31
0
  0
LINE
  8
0
 62
4
 10
208.800
 20
59358.022
 30
0
 11
216.667
 21
59359.551
 31
0
  0
LINE
  8
0
 62
4
 10
216.667
 20
59359.551
 30
0
 11
224.533
 21
59361.177
 31
0
  0
LINE
  8
0
 62
4
 10
224.533
 20
59361.177
 30
0
 11
232.400
 21
59362.930
 31
0
  0
LINE
  8
0
 62
4
 10
232.400
 20
59362.930
 30
0
 11
240.267
 21
59364.893
 31
0
  0
LINE
  8
0
 62
4
 10
240.267
 20
59364.893
 30
0
 11
248.133
 21
59367.271
 31
0
  0
LINE
  8
0
 62
4
 10
248.133
 20
59367.271
 30
0
 11
256.000
 21
59372.202
 31
0
  0
LINE
  8
0
 62
4
 10
256.000
 20
59372.202
 30
0
 11
266.000
 21
59390.308
 31
0
  0
LINE
  8
0
 62
4
 10
266.000
 20
59390.308
 30
0
 11
441.000
 21
59447.676
 31
0
  0
LINE
  8
0
 62
4
 10
441.000
 20
59447.676
 30
0
 11
584.000
 21
59523.975
 31
0
  0
LINE
  8
0
 62
4
 10
584.000
 20
59523.975
 30
0
 11
614.000
 21
59537.813
 31
0
  0
LINE
  8
0
 62
4
 10
614.000
 20
59537.813
 30
0
 11
774.000
 21
59635.020
 31
0
  0
LINE
  8
0
 62
4
 10
774.000
 20
59635.020
 30
0
 11
804.000
 21
59651.665
 31
0
  0
LINE
  8
0
 62
4
 10
804.000
 20
59651.665
 30
0
 11
1064.000
 21
59684.258
 31
0
999
- - - Symbol Data - - -
  0
LINE
  8
0
 62
4
 10
119.944
 20
59331.503
 30
0
 11
122.056
 21
59331.503
 31
0
  0
LINE
  8
0
 62
4
 10
121.000
 20
59333.615
 30
0
 11
122.056
 21
59331.503
 31
0
  0
LINE
  8
0
 62
4
 10
121.000
 20
59333.615
 30
0
 11
119.944
 21
59331.503
 31
0
  0
LINE
  8
0
 62
4
 10
136.944
 20
59345.488
 30
0
 11
139.056
 21
59345.488
 31
0
  0
LINE
  8
0
 62
4
 10
138.000
 20
59347.599
 30
0
 11
139.056
 21
59345.488
 31
0
  0
LINE
  8
0
 62
4
 10
138.000
 20
59347.599
 30
0
 11
136.944
 21
59345.488
 31
0
  0
LINE
  8
0
 62
4
 10
144.811
 20
59346.703
 30
0
 11
146.922
 21
59346.703
 31
0
  0
LINE
  8
0
 62
4
 10
145.867
 20
59348.815
 30
0
 11
146.922
 21
59346.703
 31
0
  0
LINE
  8
0
 62
4
 10
145.867
 20
59348.815
 30
0
 11
144.811
 21
59346.703
 31
0
  0
LINE
  8
0
 62
4
 10
152.678
 20
59347.939
 30
0
 11
154.789
 21
59347.939
 31
0
  0
LINE
  8
0
 62
4
 10
153.733
 20
59350.050
 30
0
 11
154.789
 21
59347.939
 31
0
  0
LINE
  8
0
 62
4
 10
153.733
 20
59350.050
 30
0
 11
152.678
 21
59347.939
 31
0
  0
LINE
  8
0
 62
4
 10
160.544
 20
59349.184
 30
0
 11
162.656
 21
59349.184
 31
0
  0
LINE
  8
0
 62
4
 10
161.600
 20
59351.295
 30
0
 11
162.656
 21
59349.184
 31
0
  0
LINE
  8
0
 62
4
 10
161.600
 20
59351.295
 30
0
 11
160.544
 21
59349.184
 31
0
  0
LINE
  8
0
 62
4
 10
168.411
 20
59350.453
 30
0
 11
170.522
 21
59350.453
 31
0
  0
LINE
  8
0
 62
4
 10
169.467
 20
59352.565
 30
0
 11
170.522
 21
59350.453
 31
0
  0
LINE
  8
0
 62
4
 10
169.467
 20
59352.565
 30
0
 11
168.411
 21
59350.453
 31
0
  0
LINE
  8
0
 62
4
 10
176.278
 20
59351.757
 30
0
 11
178.389
 21
59351.757
 31
0
  0
LINE
  8
0
 62
4
 10
177.333
 20
59353.869
 30
0
 11
178.389
 21
59351.757
 31
0
  0
LINE
  8
0
 62
4
 10
177.333
 20
59353.869
 30
0
 11
176.278
 21
59351.757
 31
0
  0
LINE
  8
0
 62
4
 10
184.144
 20
59353.085
 30
0
 11
186.256
 21
59353.085
 31
0
  0
LINE
  8
0
 62
4
 10
185.200
 20
59355.197
 30
0
 11
186.256
 21
59353.085
 31
0
  0
LINE
  8
0
 62
4
 10
185.200
 20
59355.197
 30
0
 11
184.144
 21
59353.085
 31
0
  0
LINE
  8
0
 62
4
 10
192.011
 20
59354.452
 30
0
 11
194.122
 21
59354.452
 31
0
  0
LINE
  8
0
 62
4
 10
193.067
 20
59356.564
 30
0
 11
194.122
 21
59354.452
 31
0
  0
LINE
  8
0
 62
4
 10
193.067
 20
59356.564
 30
0
 11
192.011
 21
59354.452
 31
0
  0
LINE
  8
0
 62
4
 10
199.878
 20
59355.854
 30
0
 11
201.989
 21
59355.854
 31
0
  0
LINE
  8
0
 62
4
 10
200.933
 20
59357.965
 30
0
 11
201.989
 21
59355.854
 31
0
  0
LINE
  8
0
 62
4
 10
200.933
 20
59357.965
 30
0
 11
199.878
 21
59355.854
 31
0
  0
LINE
  8
0
 62
4
 10
207.744
 20
59357.319
 30
0
 11
209.856
 21
59357.319
 31
0
  0
LINE
  8
0
 62
4
 10
208.800
 20
59359.430
 30
0
 11
209.856
 21
59357.319
 31
0
  0
LINE
  8
0
 62
4
 10
208.800
 20
59359.430
 30
0
 11
207.744
 21
59357.319
 31
0
  0
LINE
  8
0
 62
4
 10
215.611
 20
59358.847
 30
0
 11
217.722
 21
59358.847
 31
0
  0
LINE
  8
0
 62
4
 10
216.667
 20
59360.958
 30
0
 11
217.722
 21
59358.847
 31
0
  0
LINE
  8
0
 62
4
 10
216.667
 20
59360.958
 30
0
 11
215.611
 21
59358.847
 31
0
  0
LINE
  8
0
 62
4
 10
223.478
 20
59360.473
 30
0
 11
225.589
 21
59360.473
 31
0
  0
LINE
  8
0
 62
4
 10
224.533
 20
59362.584
 30
0
 11
225.589
 21
59360.473
 31
0
  0
LINE
  8
0
 62
4
 10
224.533
 20
59362.584
 30
0
 11
223.478
 21
59360.473
 31
0
  0
LINE
  8
0
 62
4
 10
231.344
 20
59362.226
 30
0
 11
233.456
 21
59362.226
 31
0
  0
LINE
  8
0
 62
4
 10
232.400
 20
59364.337
 30
0
 11
233.456
 21
59362.226
 31
0
  0
LINE
  8
0
 62
4
 10
232.400
 20
59364.337
 30
0
 11
231.344
 21
59362.226
 31
0
  0
LINE
  8
0
 62
4
 10
239.211
 20
59364.189
 30
0
 11
241.322
 21
59364.189
 31
0
  0
LINE
  8
0
 62
4
 10
240.267
 20
59366.300
 30
0
 11
241.322
 21
59364.189
 31
0
  0
LINE
  8
0
 62
4
 10
240.267
 20
59366.300
 30
0
 11
239.211
 21
59364.189
 31
0
  0
LINE
  8
0
 62
4
 10
247.078
 20
59366.567
 30
0
 11
249.189
 21
59366.567
 31
0
  0
LINE
  8
0
 62
4
 10
248.133
 20
59368.678
 30
0
 11
249.189
 21
59366.567
 31
0
  0
LINE
  8
0
 62
4
 10
248.133
 20
59368.678
 30
0
 11
247.078
 21
59366.567
 31
0
  0
LINE
  8
0
 62
4
 10
254.944
 20
59371.498
 30
0
 11
257.056
 21
59371.498
 31
0
  0
LINE
  8
0
 62
4
 10
256.000
 20
59373.610
 30
0
 11
257.056
 21
59371.498
 31
0
  0
LINE
  8
0
 62
4
 10
256.000
 20
59373.610
 30
0
 11
254.944
 21
59371.498
 31
0
  0
LINE
  8
0
 62
4
 10
264.944
 20
59389.604
 30
0
 11
267.056
 21
59389.604
 31
0
  0
LINE
  8
0
 62
4
 10
266.000
 20
59391.715
 30
0
 11
267.056
 21
59389.604
 31
0
  0
LINE
  8
0
 62
4
 10
266.000
 20
59391.715
 30
0
 11
264.944
 21
59389.604
 31
0
  0
LINE
  8
0
 62
4
 10
439.944
 20
59446.972
 30
0
 11
442.056
 21
59446.972
 31
0
  0
LINE
  8
0
 62
4
 10
441.000
 20
59449.083
 30
0
 11
442.056
 21
59446.972
 31
0
  0
LINE
  8
0
 62
4
 10
441.000
 20
59449.083
 30
0
 11
439.944
 21
59446.972
 31
0
  0
LINE
  8
0
 62
4
 10
582.944
 20
59523.271
 30
0
 11
585.056
 21
59523.271
 31
0
  0
LINE
  8
0
 62
4
 10
584.000
 20
59525.382
 30
0
 11
585.056
 21
59523.271
 31
0
  0
LINE
  8
0
 62
4
 10
584.000
 20
59525.382
 30
0
 11
582.944
 21
59523.271
 31
0
  0
LINE
  8
0
 62
4
 10
612.944
 20
59537.109
 30
0
 11
615.056
 21
59537.109
 31
0
  0
LINE
  8
0
 62
4
 10
614.000
 20
59539.220
 30
0
 11
615.056
 21
59537.109
 31
0
  0
LINE
  8
0
 62
4
 10
614.000
 20
59539.220
 30
0
 11
612.944
 21
59537.109
 31
0
  0
LINE
  8
0
 62
4
 10
772.944
 20
59634.316
 30
0
 11
775.056
 21
59634.316
 31
0
  0
LINE
  8
0
 62
4
 10
774.000
 20
59636.427
 30
0
 11
775.056
 21
59634.316
 31
0
  0
LINE
  8
0
 62
4
 10
774.000
 20
59636.427
 30
0
 11
772.944
 21
59634.316
 31
0
  0
LINE
  8
0
 62
4
 10
802.944
 20
59650.961
 30
0
 11
805.056
 21
59650.961
 31
0
  0
LINE
  8
0
 62
4
 10
804.000
 20
59653.073
 30
0
 11
805.056
 21
59650.961
 31
0
  0
LINE
  8
0
 62
4
 10
804.000
 20
59653.073
 30
0
 11
802.944
 21
59650.961
 31
0
  0
LINE
  8
0
 62
4
 10
1062.944
 20
59683.554
 30
0
 11
1065.056
 21
59683.554
 31
0
  0
LINE
  8
0
 62
4
 10
1064.000
 20
59685.665
 30
0
 11
1065.056
 21
59683.554
 31
0
  0
LINE
  8
0
 62
4
 10
1064.000
 20
59685.665
 30
0
 11
1062.944
 21
59683.554
 31
0
999
- - - Line Data - - -
  0
LINE
  8
0
 62
4
 10
121.000
 20
59405.454
 30
0
 11
138.000
 21
59373.389
 31
0
  0
LINE
  8
0
 62
4
 10
138.000
 20
59373.389
 30
0
 11
145.867
 21
59374.775
 31
0
  0
LINE
  8
0
 62
4
 10
145.867
 20
59374.775
 30
0
 11
153.733
 21
59376.187
 31
0
  0
LINE
  8
0
 62
4
 10
153.733
 20
59376.187
 30
0
 11
161.600
 21
59377.622
 31
0
  0
LINE
  8
0
 62
4
 10
161.600
 20
59377.622
 30
0
 11
169.467
 21
59379.097
 31
0
  0
LINE
  8
0
 62
4
 10
169.467
 20
59379.097
 30
0
 11
177.333
 21
59380.605
 31
0
  0
LINE
  8
0
 62
4
 10
177.333
 20
59380.605
 30
0
 11
185.200
 21
59382.158
 31
0
  0
LINE
  8
0
 62
4
 10
185.200
 20
59382.158
 30
0
 11
193.067
 21
59383.760
 31
0
  0
LINE
  8
0
 62
4
 10
193.067
 20
59383.760
 30
0
 11
200.933
 21
59385.425
 31
0
  0
LINE
  8
0
 62
4
 10
200.933
 20
59385.425
 30
0
 11
208.800
 21
59387.163
 31
0
  0
LINE
  8
0
 62
4
 10
208.800
 20
59387.163
 30
0
 11
216.667
 21
59388.999
 31
0
  0
LINE
  8
0
 62
4
 10
216.667
 20
59388.999
 30
0
 11
224.533
 21
59390.962
 31
0
  0
LINE
  8
0
 62
4
 10
224.533
 20
59390.962
 30
0
 11
232.400
 21
59393.110
 31
0
  0
LINE
  8
0
 62
4
 10
232.400
 20
59393.110
 30
0
 11
240.267
 21
59395.537
 31
0
  0
LINE
  8
0
 62
4
 10
240.267
 20
59395.537
 30
0
 11
248.133
 21
59398.530
 31
0
  0
LINE
  8
0
 62
4
 10
248.133
 20
59398.530
 30
0
 11
256.000
 21
59404.961
 31
0
  0
LINE
  8
0
 62
4
 10
256.000
 20
59404.961
 30
0
 11
266.000
 21
59441.660
 31
0
  0
LINE
  8
0
 62
4
 10
266.000
 20
59441.660
 30
0
 11
441.000
 21
59471.836
 31
0
  0
LINE
  8
0
 62
4
 10
441.000
 20
59471.836
 30
0
 11
584.000
 21
59545.732
 31
0
  0
LINE
  8
0
 62
4
 10
584.000
 20
59545.732
 30
0
 11
614.000
 21
59559.321
 31
0
  0
LINE
  8
0
 62
4
 10
614.000
 20
59559.321
 30
0
 11
774.000
 21
59669.082
 31
0
  0
LINE
  8
0
 62
4
 10
774.000
 20
59669.082
 30
0
 11
804.000
 21
59686.895
 31
0
  0
LINE
  8
0
 62
4
 10
804.000
 20
59686.895
 30
0
 11
1064.000
 21
59707.256
 31
0
999
- - - Symbol Data - - -
  0
LINE
  8
0
 62
4
 10
119.944
 20
59406.158
 30
0
 11
122.056
 21
59406.158
 31
0
  0
LINE
  8
0
 62
4
 10
121.000
 20
59404.046
 30
0
 11
122.056
 21
59406.158
 31
0
  0
LINE
  8
0
 62
4
 10
121.000
 20
59404.046
 30
0
 11
119.944
 21
59406.158
 31
0
  0
LINE
  8
0
 62
4
 10
136.944
 20
59374.092
 30
0
 11
139.056
 21
59374.092
 31
0
  0
LINE
  8
0
 62
4
 10
138.000
 20
59371.981
 30
0
 11
139.056
 21
59374.092
 31
0
  0
LINE
  8
0
 62
4
 10
138.000
 20
59371.981
 30
0
 11
136.944
 21
59374.092
 31
0
  0
LINE
  8
0
 62
4
 10
144.811
 20
59375.479
 30
0
 11
146.922
 21
59375.479
 31
0
  0
LINE
  8
0
 62
4
 10
145.867
 20
59373.368
 30
0
 11
146.922
 21
59375.479
 31
0
  0
LINE
  8
0
 62
4
 10
145.867
 20
59373.368
 30
0
 11
144.811
 21
59375.479
 31
0
  0
LINE
  8
0
 62
4
 10
152.678
 20
59376.890
 30
0
 11
154.789
 21
59376.890
 31
0
  0
LINE
  8
0
 62
4
 10
153.733
 20
59374.779
 30
0
 11
154.789
 21
59376.890
 31
0
  0
LINE
  8
0
 62
4
 10
153.733
 20
59374.779
 30
0
 11
152.678
 21
59376.890
 31
0
  0
LINE
  8
0
 62
4
 10
160.544
 20
59378.326
 30
0
 11
162.656
 21
59378.326
 31
0
  0
LINE
  8
0
 62
4
 10
161.600
 20
59376.214
 30
0
 11
162.656
 21
59378.326
 31
0
  0
LINE
  8
0
 62
4
 10
161.600
 20
59376.214
 30
0
 11
160.544
 21
59378.326
 31
0
  0
LINE
  8
0
 62
4
 10
168.411
 20
59379.800
 30
0
 11
170.522
 21
59379.800
 31
0
  0
LINE
  8
0
 62
4
 10
169.467
 20
59377.689
 30
0
 11
170.522
 21
59379.800
 31
0
  0
LINE
  8
0
 62
4
 10
169.467
 20
59377.689
 30
0
 11
168.411
 21
59379.800
 31
0
  0
LINE
  8
0
 62
4
 10
176.278
 20
59381.309
 30
0
 11
178.389
 21
59381.309
 31
0
  0
LINE
  8
0
 62
4
 10
177.333
 20
59379.198
 30
0
 11
178.389
 21
59381.309
 31
0
  0
LINE
  8
0
 62
4
 10
177.333
 20
59379.198
 30
0
 11
176.278
 21
59381.309
 31
0
  0
LINE
  8
0
 62
4
 10
184.144
 20
59382.862
 30
0
 11
186.256
 21
59382.862
 31
0
  0
LINE
  8
0
 62
4
 10
185.200
 20
59380.751
 30
0
 11
186.256
 21
59382.862
 31
0
  0
LINE
  8
0
 62
4
 10
185.200
 20
59380.751
 30
0
 11
184.144
 21
59382.862
 31
0
  0
LINE
  8
0
 62
4
 10
192.011
 20
59384.464
 30
0
 11
194.122
 21
59384.464
 31
0
  0
LINE
  8
0
 62
4
 10
193.067
 20
59382.352
 30
0
 11
194.122
 21
59384.464
 31
0
  0
LINE
  8
0
 62
4
 10
193.067
 20
59382.352
 30
0
 11
192.011
 21
59384.464
 31
0
  0
LINE
  8
0
 62
4
 10
199.878
 20
59386.129
 30
0
 11
201.989
 21
59386.129
 31
0
  0
LINE
  8
0
 62
4
 10
200.933
 20
59384.017
 30
0
 11
201.989
 21
59386.129
 31
0
  0
LINE
  8
0
 62
4
 10
200.933
 20
59384.017
 30
0
 11
199.878
 21
59386.129
 31
0
  0
LINE
  8
0
 62
4
 10
207.744
 20
59387.867
 30
0
 11
209.856
 21
59387.867
 31
0
  0
LINE
  8
0
 62
4
 10
208.800
 20
59385.755
 30
0
 11
209.856
 21
59387.867
 31
0
  0
LINE
  8
0
 62
4
 10
208.800
 20
59385.755
 30
0
 11
207.744
 21
59387.867
 31
0
  0
LINE
  8
0
 62
4
 10
215.611
 20
59389.703
 30
0
 11
217.722
 21
59389.703
 31
0
  0
LINE
  8
0
 62
4
 10
216.667
 20
59387.591
 30
0
 11
217.722
 21
59389.703
 31
0
  0
LINE
  8
0
 62
4
 10
216.667
 20
59387.591
 30
0
 11
215.611
 21
59389.703
 31
0
  0
LINE
  8
0
 62
4
 10
223.478
 20
59391.666
 30
0
 11
225.589
 21
59391.666
 31
0
  0
LINE
  8
0
 62
4
 10
224.533
 20
59389.554
 30
0
 11
225.589
 21
59391.666
 31
0
  0
LINE
  8
0
 62
4
 10
224.533
 20
59389.554
 30
0
 11
223.478
 21
59391.666
 31
0
  0
LINE
  8
0
 62
4
 10
231.344
 20
59393.814
 30
0
 11
233.456
 21
59393.814
 31
0
  0
LINE
  8
0
 62
4
 10
232.400
 20
59391.703
 30
0
 11
233.456
 21
59393.814
 31
0
  0
LINE
  8
0
 62
4
 10
232.400
 20
59391.703
 30
0
 11
231.344
 21
59393.814
 31
0
  0
LINE
  8
0
 62
4
 10
239.211
 20
59396.241
 30
0
 11
241.322
 21
59396.241
 31
0
  0
LINE
  8
0
 62
4
 10
240.267
 20
59394.129
 30
0
 11
241.322
 21
59396.241
 31
0
  0
LINE
  8
0
 62
4
 10
240.267
 20
59394.129
 30
0
 11
239.211
 21
59396.241
 31
0
  0
LINE
  8
0
 62
4
 10
247.078
 20
59399.234
 30
0
 11
249.189
 21
59399.234
 31
0
  0
LINE
  8
0
 62
4
 10
248.133
 20
59397.123
 30
0
 11
249.189
 21
59399.234
 31
0
  0
LINE
  8
0
 62
4
 10
248.133
 20
59397.123
 30
0
 11
247.078
 21
59399.234
 31
0
  0
LINE
  8
0
 62
4
 10
254.944
 20
59405.665
 30
0
 11
257.056
 21
59405.665
 31
0
  0
LINE
  8
0
 62
4
 10
256.000
 20
59403.553
 30
0
 11
257.056
 21
59405.665
 31
0
  0
LINE
  8
0
 62
4
 10
256.000
 20
59403.553
 30
0
 11
254.944
 21
59405.665
 31
0
  0
LINE
  8
0
 62
4
 10
264.944
 20
59442.364
 30
0
 11
267.056
 21
59442.364
 31
0
  0
LINE
  8
0
 62
4
 10
266.000
 20
59440.253
 30
0
 11
267.056
 21
59442.364
 31
0
  0
LINE
  8
0
 62
4
 10
266.000
 20
59440.253
 30
0
 11
264.944
 21
59442.364
 31
0
  0
LINE
  8
0
 62
4
 10
439.944
 20
59472.540
 30
0
 11
442.056
 21
59472.540
 31
0
  0
LINE
  8
0
 62
4
 10
441.000
 20
59470.428
 30
0
 11
442.056
 21
59472.540
 31
0
  0
LINE
  8
0
 62
4
 10
441.000
 20
59470.428
 30
0
 11
439.944
 21
59472.540
 31
0
  0
LINE
  8
0
 62
4
 10
582.944
 20
59546.436
 30
0
 11
585.056
 21
59546.436
 31
0
  0
LINE
  8
0
 62
4
 10
584.000
 20
59544.325
 30
0
 11
585.056
 21
59546.436
 31
0
  0
LINE
  8
0
 62
4
 10
584.000
 20
59544.325
 30
0
 11
582.944
 21
59546.436
 31
0
  0
LINE
  8
0
 62
4
 10
612.944
 20
59560.025
 30
0
 11
615.056
 21
59560.025
 31
0
  0
LINE
  8
0
 62
4
 10
614.000
 20
59557.914
 30
0
 11
615.056
 21
59560.025
 31
0
  0
LINE
  8
0
 62
4
 10
614.000
 20
59557.914
 30
0
 11
612.944
 21
59560.025
 31
0
  0
LINE
  8
0
 62
4
 10
772.944
 20
59669.786
 30
0
 11
775.056
 21
59669.786
 31
0
  0
LINE
  8
0
 62
4
 10
774.000
 20
59667.674
 30
0
 11
775.056
 21
59669.786
 31
0
  0
LINE
  8
0
 62
4
 10
774.000
 20
59667.674
 30
0
 11
772.944
 21
59669.786
 31
0
  0
LINE
  8
0
 62
4
 10
802.944
 20
59687.598
 30
0
 11
805.056
 21
59687.598
 31
0
  0
LINE
  8
0
 62
4
 10
804.000
 20
59685.487
 30
0
 11
805.056
 21
59687.598
 31
0
  0
LINE
  8
0
 62
4
 10
804.000
 20
59685.487
 30
0
 11
802.944
 21
59687.598
 31
0
  0
LINE
  8
0
 62
4
 10
1062.944
 20
59707.960
 30
0
 11
1065.056
 21
59707.960
 31
0
  0
LINE
  8
0
 62
4
 10
1064.000
 20
59705.848
 30
0
 11
1065.056
 21
59707.960
 31
0
  0
LINE
  8
0
 62
4
 10
1064.000
 20
59705.848
 30
0
 11
1062.944
 21
59707.960
 31
0
999
- - - Line Data - - -
  0
LINE
  8
0
 62
4
 10
121.000
 20
59526.274
 30
0
 11
138.000
 21
59526.274
 31
0
  0
LINE
  8
0
 62
4
 10
138.000
 20
59526.274
 30
0
 11
256.000
 21
59527.598
 31
0
  0
LINE
  8
0
 62
4
 10
256.000
 20
59527.598
 30
0
 11
266.000
 21
59527.598
 31
0
  0
LINE
  8
0
 62
4
 10
266.000
 20
59527.598
 30
0
 11
441.000
 21
59521.597
 31
0
  0
LINE
  8
0
 62
4
 10
441.000
 20
59521.597
 30
0
 11
584.000
 21
59583.418
 31
0
  0
LINE
  8
0
 62
4
 10
584.000
 20
59583.418
 30
0
 11
614.000
 21
59603.076
 31
0
  0
LINE
  8
0
 62
4
 10
614.000
 20
59603.076
 30
0
 11
774.000
 21
59715.161
 31
0
  0
LINE
  8
0
 62
4
 10
774.000
 20
59715.161
 30
0
 11
804.000
 21
59736.782
 31
0
  0
LINE
  8
0
 62
4
 10
804.000
 20
59736.782
 30
0
 11
1064.000
 21
59754.077
 31
0
999
- - - Symbol Data - - -
  0
LINE
  8
0
 62
4
 10
119.944
 20
59525.219
 30
0
 11
122.056
 21
59527.330
 31
0
  0
LINE
  8
0
 62
4
 10
119.944
 20
59527.330
 30
0
 11
122.056
 21
59525.219
 31
0
  0
LINE
  8
0
 62
4
 10
136.944
 20
59525.219
 30
0
 11
139.056
 21
59527.330
 31
0
  0
LINE
  8
0
 62
4
 10
136.944
 20
59527.330
 30
0
 11
139.056
 21
59525.219
 31
0
  0
LINE
  8
0
 62
4
 10
254.944
 20
59526.542
 30
0
 11
257.056
 21
59528.653
 31
0
  0
LINE
  8
0
 62
4
 10
254.944
 20
59528.653
 30
0
 11
257.056
 21
59526.542
 31
0
  0
LINE
  8
0
 62
4
 10
264.944
 20
59526.542
 30
0
 11
267.056
 21
59528.653
 31
0
  0
LINE
  8
0
 62
4
 10
264.944
 20
59528.653
 30
0
 11
267.056
 21
59526.542
 31
0
  0
LINE
  8
0
 62
4
 10
439.944
 20
59520.541
 30
0
 11
442.056
 21
59522.652
 31
0
  0
LINE
  8
0
 62
4
 10
439.944
 20
59522.652
 30
0
 11
442.056
 21
59520.541
 31
0
  0
LINE
  8
0
 62
4
 10
582.944
 20
59582.362
 30
0
 11
585.056
 21
59584.474
 31
0
  0
LINE
  8
0
 62
4
 10
582.944
 20
59584.474
 30
0
 11
585.056
 21
59582.362
 31
0
  0
LINE
  8
0
 62
4
 10
612.944
 20
59602.020
 30
0
 11
615.056
 21
59604.132
 31
0
  0
LINE
  8
0
 62
4
 10
612.944
 20
59604.132
 30
0
 11
615.056
 21
59602.020
 31
0
  0
LINE
  8
0
 62
4
 10
772.944
 20
59714.105
 30
0
 11
775.056
 21
59716.217
 31
0
  0
LINE
  8
0
 62
4
 10
772.944
 20
59716.217
 30
0
 11
775.056
 21
59714.105
 31
0
  0
LINE
  8
0
 62
4
 10
802.944
 20
59735.727
 30
0
 11
805.056
 21
59737.838
 31
0
  0
LINE
  8
0
 62
4
 10
802.944
 20
59737.838
 30
0
 11
805.056
 21
59735.727
 31
0
  0
LINE
  8
0
 62
4
 10
1062.944
 20
59753.021
 30
0
 11
1065.056
 21
59755.133
 31
0
  0
LINE
  8
0
 62
4
 10
1062.944
 20
59755.133
 30
0
 11
1065.056
 21
59753.021
 31
0
  0
ENDSEC
  0
EOF
