  0
SECTION
  2
ENTITIES
999
- - - Grid Lines - - -
  0
LINE
  8
0
 62
9
 10
0.000
 20
60100.000
 30
0
 11
0.000
 21
59400.000
 31
0
  0
LINE
  8
0
 62
9
 10
1000.000
 20
60100.000
 30
0
 11
1000.000
 21
59400.000
 31
0
  0
LINE
  8
0
 62
9
 10
2000.000
 20
60100.000
 30
0
 11
2000.000
 21
59400.000
 31
0
  0
LINE
  8
0
 62
9
 10
3000.000
 20
60100.000
 30
0
 11
3000.000
 21
59400.000
 31
0
  0
LINE
  8
0
 62
9
 10
4000.000
 20
60100.000
 30
0
 11
4000.000
 21
59400.000
 31
0
  0
LINE
  8
0
 62
9
 10
5000.000
 20
60100.000
 30
0
 11
5000.000
 21
59400.000
 31
0
  0
LINE
  8
0
 62
9
 10
6000.000
 20
60100.000
 30
0
 11
6000.000
 21
59400.000
 31
0
  0
LINE
  8
0
 62
9
 10
0.000
 20
59400.000
 30
0
 11
6000.000
 21
59400.000
 31
0
  0
LINE
  8
0
 62
9
 10
0.000
 20
59500.000
 30
0
 11
6000.000
 21
59500.000
 31
0
  0
LINE
  8
0
 62
9
 10
0.000
 20
59600.000
 30
0
 11
6000.000
 21
59600.000
 31
0
  0
LINE
  8
0
 62
9
 10
0.000
 20
59700.000
 30
0
 11
6000.000
 21
59700.000
 31
0
  0
LINE
  8
0
 62
9
 10
0.000
 20
59800.000
 30
0
 11
6000.000
 21
59800.000
 31
0
  0
LINE
  8
0
 62
9
 10
0.000
 20
59900.000
 30
0
 11
6000.000
 21
59900.000
 31
0
  0
LINE
  8
0
 62
9
 10
0.000
 20
60000.000
 30
0
 11
6000.000
 21
60000.000
 31
0
  0
LINE
  8
0
 62
9
 10
0.000
 20
60100.000
 30
0
 11
6000.000
 21
60100.000
 31
0
  0
LINE
  8
0
 62
9
 10
200.000
 20
60100.000
 30
0
 11
200.000
 21
59400.000
 31
0
  0
LINE
  8
0
 62
9
 10
400.000
 20
60100.000
 30
0
 11
400.000
 21
59400.000
 31
0
  0
LINE
  8
0
 62
9
 10
600.000
 20
60100.000
 30
0
 11
600.000
 21
59400.000
 31
0
  0
LINE
  8
0
 62
9
 10
800.000
 20
60100.000
 30
0
 11
800.000
 21
59400.000
 31
0
  0
LINE
  8
0
 62
9
 10
1200.000
 20
60100.000
 30
0
 11
1200.000
 21
59400.000
 31
0
  0
LINE
  8
0
 62
9
 10
1400.000
 20
60100.000
 30
0
 11
1400.000
 21
59400.000
 31
0
  0
LINE
  8
0
 62
9
 10
1600.000
 20
60100.000
 30
0
 11
1600.000
 21
59400.000
 31
0
  0
LINE
  8
0
 62
9
 10
1800.000
 20
60100.000
 30
0
 11
1800.000
 21
59400.000
 31
0
  0
LINE
  8
0
 62
9
 10
2200.000
 20
60100.000
 30
0
 11
2200.000
 21
59400.000
 31
0
  0
LINE
  8
0
 62
9
 10
2400.000
 20
60100.000
 30
0
 11
2400.000
 21
59400.000
 31
0
  0
LINE
  8
0
 62
9
 10
2600.000
 20
60100.000
 30
0
 11
2600.000
 21
59400.000
 31
0
  0
LINE
  8
0
 62
9
 10
2800.000
 20
60100.000
 30
0
 11
2800.000
 21
59400.000
 31
0
  0
LINE
  8
0
 62
9
 10
3200.000
 20
60100.000
 30
0
 11
3200.000
 21
59400.000
 31
0
  0
LINE
  8
0
 62
9
 10
3400.000
 20
60100.000
 30
0
 11
3400.000
 21
59400.000
 31
0
  0
LINE
  8
0
 62
9
 10
3600.000
 20
60100.000
 30
0
 11
3600.000
 21
59400.000
 31
0
  0
LINE
  8
0
 62
9
 10
3800.000
 20
60100.000
 30
0
 11
3800.000
 21
59400.000
 31
0
  0
LINE
  8
0
 62
9
 10
4200.000
 20
60100.000
 30
0
 11
4200.000
 21
59400.000
 31
0
  0
LINE
  8
0
 62
9
 10
4400.000
 20
60100.000
 30
0
 11
4400.000
 21
59400.000
 31
0
  0
LINE
  8
0
 62
9
 10
4600.000
 20
60100.000
 30
0
 11
4600.000
 21
59400.000
 31
0
  0
LINE
  8
0
 62
9
 10
4800.000
 20
60100.000
 30
0
 11
4800.000
 21
59400.000
 31
0
  0
LINE
  8
0
 62
9
 10
5200.000
 20
60100.000
 30
0
 11
5200.000
 21
59400.000
 31
0
  0
LINE
  8
0
 62
9
 10
5400.000
 20
60100.000
 30
0
 11
5400.000
 21
59400.000
 31
0
  0
LINE
  8
0
 62
9
 10
5600.000
 20
60100.000
 30
0
 11
5600.000
 21
59400.000
 31
0
  0
LINE
  8
0
 62
9
 10
5800.000
 20
60100.000
 30
0
 11
5800.000
 21
59400.000
 31
0
  0
LINE
  8
0
 62
9
 10
0.000
 20
59420.000
 30
0
 11
6000.000
 21
59420.000
 31
0
  0
LINE
  8
0
 62
9
 10
0.000
 20
59440.000
 30
0
 11
6000.000
 21
59440.000
 31
0
  0
LINE
  8
0
 62
9
 10
0.000
 20
59460.000
 30
0
 11
6000.000
 21
59460.000
 31
0
  0
LINE
  8
0
 62
9
 10
0.000
 20
59480.000
 30
0
 11
6000.000
 21
59480.000
 31
0
  0
LINE
  8
0
 62
9
 10
0.000
 20
59520.000
 30
0
 11
6000.000
 21
59520.000
 31
0
  0
LINE
  8
0
 62
9
 10
0.000
 20
59540.000
 30
0
 11
6000.000
 21
59540.000
 31
0
  0
LINE
  8
0
 62
9
 10
0.000
 20
59560.000
 30
0
 11
6000.000
 21
59560.000
 31
0
  0
LINE
  8
0
 62
9
 10
0.000
 20
59580.000
 30
0
 11
6000.000
 21
59580.000
 31
0
  0
LINE
  8
0
 62
9
 10
0.000
 20
59620.000
 30
0
 11
6000.000
 21
59620.000
 31
0
  0
LINE
  8
0
 62
9
 10
0.000
 20
59640.000
 30
0
 11
6000.000
 21
59640.000
 31
0
  0
LINE
  8
0
 62
9
 10
0.000
 20
59660.000
 30
0
 11
6000.000
 21
59660.000
 31
0
  0
LINE
  8
0
 62
9
 10
0.000
 20
59680.000
 30
0
 11
6000.000
 21
59680.000
 31
0
  0
LINE
  8
0
 62
9
 10
0.000
 20
59720.000
 30
0
 11
6000.000
 21
59720.000
 31
0
  0
LINE
  8
0
 62
9
 10
0.000
 20
59740.000
 30
0
 11
6000.000
 21
59740.000
 31
0
  0
LINE
  8
0
 62
9
 10
0.000
 20
59760.000
 30
0
 11
6000.000
 21
59760.000
 31
0
  0
LINE
  8
0
 62
9
 10
0.000
 20
59780.000
 30
0
 11
6000.000
 21
59780.000
 31
0
  0
LINE
  8
0
 62
9
 10
0.000
 20
59820.000
 30
0
 11
6000.000
 21
59820.000
 31
0
  0
LINE
  8
0
 62
9
 10
0.000
 20
59840.000
 30
0
 11
6000.000
 21
59840.000
 31
0
  0
LINE
  8
0
 62
9
 10
0.000
 20
59860.000
 30
0
 11
6000.000
 21
59860.000
 31
0
  0
LINE
  8
0
 62
9
 10
0.000
 20
59880.000
 30
0
 11
6000.000
 21
59880.000
 31
0
  0
LINE
  8
0
 62
9
 10
0.000
 20
59920.000
 30
0
 11
6000.000
 21
59920.000
 31
0
  0
LINE
  8
0
 62
9
 10
0.000
 20
59940.000
 30
0
 11
6000.000
 21
59940.000
 31
0
  0
LINE
  8
0
 62
9
 10
0.000
 20
59960.000
 30
0
 11
6000.000
 21
59960.000
 31
0
  0
LINE
  8
0
 62
9
 10
0.000
 20
59980.000
 30
0
 11
6000.000
 21
59980.000
 31
0
  0
LINE
  8
0
 62
9
 10
0.000
 20
60020.000
 30
0
 11
6000.000
 21
60020.000
 31
0
  0
LINE
  8
0
 62
9
 10
0.000
 20
60040.000
 30
0
 11
6000.000
 21
60040.000
 31
0
  0
LINE
  8
0
 62
9
 10
0.000
 20
60060.000
 30
0
 11
6000.000
 21
60060.000
 31
0
  0
LINE
  8
0
 62
9
 10
0.000
 20
60080.000
 30
0
 11
6000.000
 21
60080.000
 31
0
  0
LINE
  8
0
 62
7
 10
0.000
 20
59400.000
 30
0
 11
0.000
 21
60100.000
 31
0
  0
LINE
  8
0
 62
7
 10
0.000
 20
60100.000
 30
0
 11
6000.000
 21
60100.000
 31
0
  0
LINE
  8
0
 62
7
 10
6000.000
 20
60100.000
 30
0
 11
6000.000
 21
59400.000
 31
0
  0
LINE
  8
0
 62
7
 10
6000.000
 20
59400.000
 30
0
 11
0.000
 21
59400.000
 31
0
999
- - - Axis - - -
  0
LINE
  8
0
 62
7
 10
0.000
 20
59400.000
 30
0
 11
0.000
 21
60100.000
 31
0
  0
LINE
  8
0
 62
7
 10
0.000
 20
59400.000
 30
0
 11
6000.000
 21
59400.000
 31
0
  0
LINE
  8
0
 62
7
 10
0.000
 20
59400.000
 30
0
 11
0.000
 21
59396.497
 31
0
  0
Text
  8
0
 10
0.000
 20
59394.745
 30
0
 40
8.758554
 50
0
  1
0
 72
1
 11
0.000
 21
59394.745
 31
0
 73
3
  0
LINE
  8
0
 62
7
 10
1000.000
 20
59400.000
 30
0
 11
1000.000
 21
59396.497
 31
0
  0
Text
  8
0
 10
1000.000
 20
59394.745
 30
0
 40
8.758554
 50
0
  1
1000
 72
1
 11
1000.000
 21
59394.745
 31
0
 73
3
  0
LINE
  8
0
 62
7
 10
2000.000
 20
59400.000
 30
0
 11
2000.000
 21
59396.497
 31
0
  0
Text
  8
0
 10
2000.000
 20
59394.745
 30
0
 40
8.758554
 50
0
  1
2000
 72
1
 11
2000.000
 21
59394.745
 31
0
 73
3
  0
LINE
  8
0
 62
7
 10
3000.000
 20
59400.000
 30
0
 11
3000.000
 21
59396.497
 31
0
  0
Text
  8
0
 10
3000.000
 20
59394.745
 30
0
 40
8.758554
 50
0
  1
3000
 72
1
 11
3000.000
 21
59394.745
 31
0
 73
3
  0
LINE
  8
0
 62
7
 10
4000.000
 20
59400.000
 30
0
 11
4000.000
 21
59396.497
 31
0
  0
Text
  8
0
 10
4000.000
 20
59394.745
 30
0
 40
8.758554
 50
0
  1
4000
 72
1
 11
4000.000
 21
59394.745
 31
0
 73
3
  0
LINE
  8
0
 62
7
 10
5000.000
 20
59400.000
 30
0
 11
5000.000
 21
59396.497
 31
0
  0
Text
  8
0
 10
5000.000
 20
59394.745
 30
0
 40
8.758554
 50
0
  1
5000
 72
1
 11
5000.000
 21
59394.745
 31
0
 73
3
  0
LINE
  8
0
 62
7
 10
6000.000
 20
59400.000
 30
0
 11
6000.000
 21
59396.497
 31
0
  0
Text
  8
0
 10
6000.000
 20
59394.745
 30
0
 40
8.758554
 50
0
  1
6000
 72
1
 11
6000.000
 21
59394.745
 31
0
 73
3
  0
LINE
  8
0
 62
7
 10
200.000
 20
59400.000
 30
0
 11
200.000
 21
59397.810
 31
0
  0
LINE
  8
0
 62
7
 10
400.000
 20
59400.000
 30
0
 11
400.000
 21
59397.810
 31
0
  0
LINE
  8
0
 62
7
 10
600.000
 20
59400.000
 30
0
 11
600.000
 21
59397.810
 31
0
  0
LINE
  8
0
 62
7
 10
800.000
 20
59400.000
 30
0
 11
800.000
 21
59397.810
 31
0
  0
LINE
  8
0
 62
7
 10
1200.000
 20
59400.000
 30
0
 11
1200.000
 21
59397.810
 31
0
  0
LINE
  8
0
 62
7
 10
1400.000
 20
59400.000
 30
0
 11
1400.000
 21
59397.810
 31
0
  0
LINE
  8
0
 62
7
 10
1600.000
 20
59400.000
 30
0
 11
1600.000
 21
59397.810
 31
0
  0
LINE
  8
0
 62
7
 10
1800.000
 20
59400.000
 30
0
 11
1800.000
 21
59397.810
 31
0
  0
LINE
  8
0
 62
7
 10
2200.000
 20
59400.000
 30
0
 11
2200.000
 21
59397.810
 31
0
  0
LINE
  8
0
 62
7
 10
2400.000
 20
59400.000
 30
0
 11
2400.000
 21
59397.810
 31
0
  0
LINE
  8
0
 62
7
 10
2600.000
 20
59400.000
 30
0
 11
2600.000
 21
59397.810
 31
0
  0
LINE
  8
0
 62
7
 10
2800.000
 20
59400.000
 30
0
 11
2800.000
 21
59397.810
 31
0
  0
LINE
  8
0
 62
7
 10
3200.000
 20
59400.000
 30
0
 11
3200.000
 21
59397.810
 31
0
  0
LINE
  8
0
 62
7
 10
3400.000
 20
59400.000
 30
0
 11
3400.000
 21
59397.810
 31
0
  0
LINE
  8
0
 62
7
 10
3600.000
 20
59400.000
 30
0
 11
3600.000
 21
59397.810
 31
0
  0
LINE
  8
0
 62
7
 10
3800.000
 20
59400.000
 30
0
 11
3800.000
 21
59397.810
 31
0
  0
LINE
  8
0
 62
7
 10
4200.000
 20
59400.000
 30
0
 11
4200.000
 21
59397.810
 31
0
  0
LINE
  8
0
 62
7
 10
4400.000
 20
59400.000
 30
0
 11
4400.000
 21
59397.810
 31
0
  0
LINE
  8
0
 62
7
 10
4600.000
 20
59400.000
 30
0
 11
4600.000
 21
59397.810
 31
0
  0
LINE
  8
0
 62
7
 10
4800.000
 20
59400.000
 30
0
 11
4800.000
 21
59397.810
 31
0
  0
LINE
  8
0
 62
7
 10
5200.000
 20
59400.000
 30
0
 11
5200.000
 21
59397.810
 31
0
  0
LINE
  8
0
 62
7
 10
5400.000
 20
59400.000
 30
0
 11
5400.000
 21
59397.810
 31
0
  0
LINE
  8
0
 62
7
 10
5600.000
 20
59400.000
 30
0
 11
5600.000
 21
59397.810
 31
0
  0
LINE
  8
0
 62
7
 10
5800.000
 20
59400.000
 30
0
 11
5800.000
 21
59397.810
 31
0
  0
LINE
  8
0
 62
7
 10
0.000
 20
59400.000
 30
0
 11
-3.503
 21
59400.000
 31
0
  0
Text
  8
0
 10
-7.007
 20
59400.000
 30
0
 40
8.758554
 50
0
  1
5940
 72
2
 11
-7.007
 21
59400.000
 31
0
 73
2
  0
LINE
  8
0
 62
7
 10
0.000
 20
59500.000
 30
0
 11
-3.503
 21
59500.000
 31
0
  0
Text
  8
0
 10
-7.007
 20
59500.000
 30
0
 40
8.758554
 50
0
  1
5950
 72
2
 11
-7.007
 21
59500.000
 31
0
 73
2
  0
LINE
  8
0
 62
7
 10
0.000
 20
59600.000
 30
0
 11
-3.503
 21
59600.000
 31
0
  0
Text
  8
0
 10
-7.007
 20
59600.000
 30
0
 40
8.758554
 50
0
  1
5960
 72
2
 11
-7.007
 21
59600.000
 31
0
 73
2
  0
LINE
  8
0
 62
7
 10
0.000
 20
59700.000
 30
0
 11
-3.503
 21
59700.000
 31
0
  0
Text
  8
0
 10
-7.007
 20
59700.000
 30
0
 40
8.758554
 50
0
  1
5970
 72
2
 11
-7.007
 21
59700.000
 31
0
 73
2
  0
LINE
  8
0
 62
7
 10
0.000
 20
59800.000
 30
0
 11
-3.503
 21
59800.000
 31
0
  0
Text
  8
0
 10
-7.007
 20
59800.000
 30
0
 40
8.758554
 50
0
  1
5980
 72
2
 11
-7.007
 21
59800.000
 31
0
 73
2
  0
LINE
  8
0
 62
7
 10
0.000
 20
59900.000
 30
0
 11
-3.503
 21
59900.000
 31
0
  0
Text
  8
0
 10
-7.007
 20
59900.000
 30
0
 40
8.758554
 50
0
  1
5990
 72
2
 11
-7.007
 21
59900.000
 31
0
 73
2
  0
LINE
  8
0
 62
7
 10
0.000
 20
60000.000
 30
0
 11
-3.503
 21
60000.000
 31
0
  0
Text
  8
0
 10
-7.007
 20
60000.000
 30
0
 40
8.758554
 50
0
  1
6000
 72
2
 11
-7.007
 21
60000.000
 31
0
 73
2
  0
LINE
  8
0
 62
7
 10
0.000
 20
60100.000
 30
0
 11
-3.503
 21
60100.000
 31
0
  0
Text
  8
0
 10
-7.007
 20
60100.000
 30
0
 40
8.758554
 50
0
  1
6010
 72
2
 11
-7.007
 21
60100.000
 31
0
 73
2
  0
LINE
  8
0
 62
7
 10
0.000
 20
59420.000
 30
0
 11
-2.190
 21
59420.000
 31
0
  0
LINE
  8
0
 62
7
 10
0.000
 20
59440.000
 30
0
 11
-2.190
 21
59440.000
 31
0
  0
LINE
  8
0
 62
7
 10
0.000
 20
59460.000
 30
0
 11
-2.190
 21
59460.000
 31
0
  0
LINE
  8
0
 62
7
 10
0.000
 20
59480.000
 30
0
 11
-2.190
 21
59480.000
 31
0
  0
LINE
  8
0
 62
7
 10
0.000
 20
59520.000
 30
0
 11
-2.190
 21
59520.000
 31
0
  0
LINE
  8
0
 62
7
 10
0.000
 20
59540.000
 30
0
 11
-2.190
 21
59540.000
 31
0
  0
LINE
  8
0
 62
7
 10
0.000
 20
59560.000
 30
0
 11
-2.190
 21
59560.000
 31
0
  0
LINE
  8
0
 62
7
 10
0.000
 20
59580.000
 30
0
 11
-2.190
 21
59580.000
 31
0
  0
LINE
  8
0
 62
7
 10
0.000
 20
59620.000
 30
0
 11
-2.190
 21
59620.000
 31
0
  0
LINE
  8
0
 62
7
 10
0.000
 20
59640.000
 30
0
 11
-2.190
 21
59640.000
 31
0
  0
LINE
  8
0
 62
7
 10
0.000
 20
59660.000
 30
0
 11
-2.190
 21
59660.000
 31
0
  0
LINE
  8
0
 62
7
 10
0.000
 20
59680.000
 30
0
 11
-2.190
 21
59680.000
 31
0
  0
LINE
  8
0
 62
7
 10
0.000
 20
59720.000
 30
0
 11
-2.190
 21
59720.000
 31
0
  0
LINE
  8
0
 62
7
 10
0.000
 20
59740.000
 30
0
 11
-2.190
 21
59740.000
 31
0
  0
LINE
  8
0
 62
7
 10
0.000
 20
59760.000
 30
0
 11
-2.190
 21
59760.000
 31
0
  0
LINE
  8
0
 62
7
 10
0.000
 20
59780.000
 30
0
 11
-2.190
 21
59780.000
 31
0
  0
LINE
  8
0
 62
7
 10
0.000
 20
59820.000
 30
0
 11
-2.190
 21
59820.000
 31
0
  0
LINE
  8
0
 62
7
 10
0.000
 20
59840.000
 30
0
 11
-2.190
 21
59840.000
 31
0
  0
LINE
  8
0
 62
7
 10
0.000
 20
59860.000
 30
0
 11
-2.190
 21
59860.000
 31
0
  0
LINE
  8
0
 62
7
 10
0.000
 20
59880.000
 30
0
 11
-2.190
 21
59880.000
 31
0
  0
LINE
  8
0
 62
7
 10
0.000
 20
59920.000
 30
0
 11
-2.190
 21
59920.000
 31
0
  0
LINE
  8
0
 62
7
 10
0.000
 20
59940.000
 30
0
 11
-2.190
 21
59940.000
 31
0
  0
LINE
  8
0
 62
7
 10
0.000
 20
59960.000
 30
0
 11
-2.190
 21
59960.000
 31
0
  0
LINE
  8
0
 62
7
 10
0.000
 20
59980.000
 30
0
 11
-2.190
 21
59980.000
 31
0
  0
LINE
  8
0
 62
7
 10
0.000
 20
60020.000
 30
0
 11
-2.190
 21
60020.000
 31
0
  0
LINE
  8
0
 62
7
 10
0.000
 20
60040.000
 30
0
 11
-2.190
 21
60040.000
 31
0
  0
LINE
  8
0
 62
7
 10
0.000
 20
60060.000
 30
0
 11
-2.190
 21
60060.000
 31
0
  0
LINE
  8
0
 62
7
 10
0.000
 20
60080.000
 30
0
 11
-2.190
 21
60080.000
 31
0
  0
Text
  8
0
 10
3000.000
 20
60116.422
 30
0
 40
8.758554
 50
0
  1
Geom: Existing Cimarron Bijou 2002    Flow: Existing Flows
 72
1
 11
3000.000
 21
60116.422
 31
0
 73
3
  0
Text
  8
0
 10
3000.000
 20
60138.319
 30
0
 40
10.94819
 50
0
  1
Cimarron Bijou 2002       Plan: Plan 03    
 72
1
 11
3000.000
 21
60138.319
 31
0
 73
3
  0
Text
  8
0
 10
3000.000
 20
59363.289
 30
0
 40
8.758554
 50
0
  1
Main Channel Distance (ft)
 72
1
 11
3000.000
 21
59363.289
 31
0
 73
3
  0
Text
  8
0
 10
-52.551
 20
59750.000
 30
0
 40
8.758554
 50
90
  1
Elevation (ft)
 72
1
 11
-52.551
 21
59750.000
 31
0
 73
3
999
- - - Legend - - -
  0
Text
  8
0
 10
6065.689
 20
60095.621
 30
0
 40
8.758554
 50
0
  1
Legend
 72
1
 11
6065.689
 21
60095.621
 31
0
 73
3
  0
LINE
  8
0
 62
7
 10
6017.517
 20
60082.483
 30
0
 11
6113.861
 21
60082.483
 31
0
  0
LINE
  8
0
 62
4
 10
6017.517
 20
60069.345
 30
0
 11
6113.861
 21
60069.345
 31
0
  0
LINE
  8
0
 62
4
 10
6064.457
 20
60068.113
 30
0
 11
6066.921
 21
60070.577
 31
0
  0
LINE
  8
0
 62
4
 10
6064.457
 20
60070.577
 30
0
 11
6066.921
 21
60068.113
 31
0
  0
Text
  8
0
 10
6065.689
 20
60060.587
 30
0
 40
8.758554
 50
0
  1
WS  500-yr.
 72
1
 11
6065.689
 21
60060.587
 31
0
 73
3
  0
LINE
  8
0
 62
4
 10
6017.517
 20
60047.449
 30
0
 11
6113.861
 21
60047.449
 31
0
  0
Text
  8
0
 10
6065.689
 20
60038.690
 30
0
 40
8.758554
 50
0
  1
WS  100yr ex
 72
1
 11
6065.689
 21
60038.690
 31
0
 73
3
  0
LINE
  8
0
 62
4
 10
6017.517
 20
60025.552
 30
0
 11
6113.861
 21
60025.552
 31
0
  0
LINE
  8
0
 62
4
 10
6064.457
 20
60026.373
 30
0
 11
6066.921
 21
60026.373
 31
0
  0
LINE
  8
0
 62
4
 10
6065.689
 20
60023.910
 30
0
 11
6066.921
 21
60026.373
 31
0
  0
LINE
  8
0
 62
4
 10
6065.689
 20
60023.910
 30
0
 11
6064.457
 21
60026.373
 31
0
  0
Text
  8
0
 10
6065.689
 20
60016.794
 30
0
 40
8.758554
 50
0
  1
WS  50-yr ex
 72
1
 11
6065.689
 21
60016.794
 31
0
 73
3
  0
LINE
  8
0
 62
4
 10
6017.517
 20
60003.656
 30
0
 11
6113.861
 21
60003.656
 31
0
  0
LINE
  8
0
 62
4
 10
6064.457
 20
60002.835
 30
0
 11
6066.921
 21
60002.835
 31
0
  0
LINE
  8
0
 62
4
 10
6065.689
 20
60005.298
 30
0
 11
6066.921
 21
60002.835
 31
0
  0
LINE
  8
0
 62
4
 10
6065.689
 20
60005.298
 30
0
 11
6064.457
 21
60002.835
 31
0
  0
Text
  8
0
 10
6065.689
 20
59994.897
 30
0
 40
8.758554
 50
0
  1
WS  10-yr ex
 72
1
 11
6065.689
 21
59994.897
 31
0
 73
3
  0
LINE
  8
0
 62
7
 10
6017.517
 20
59981.760
 30
0
 11
6113.861
 21
59981.760
 31
0
  0
LINE
  8
0
 62
7
 10
6064.457
 20
59980.528
 30
0
 11
6064.457
 21
59982.991
 31
0
  0
LINE
  8
0
 62
7
 10
6064.457
 20
59982.991
 30
0
 11
6066.921
 21
59982.991
 31
0
  0
LINE
  8
0
 62
7
 10
6066.921
 20
59982.991
 30
0
 11
6066.921
 21
59980.528
 31
0
  0
LINE
  8
0
 62
7
 10
6066.921
 20
59980.528
 30
0
 11
6064.457
 21
59980.528
 31
0
  0
Text
  8
0
 10
6065.689
 20
59973.001
 30
0
 40
8.758554
 50
0
  1
Ground
 72
1
 11
6065.689
 21
59973.001
 31
0
 73
3
  0
LINE
  8
0
 62
7
 10
6008.759
 20
60100.000
 30
0
 11
6122.620
 21
60100.000
 31
0
  0
LINE
  8
0
 62
7
 10
6122.620
 20
60100.000
 30
0
 11
6122.620
 21
59959.863
 31
0
  0
LINE
  8
0
 62
7
 10
6008.759
 20
60100.000
 30
0
 11
6008.759
 21
59959.863
 31
0
  0
LINE
  8
0
 62
7
 10
6122.620
 20
59959.863
 30
0
 11
6008.759
 21
59959.863
 31
0
999
- - - Line Data - - -
999
- - - Line Data - - -
  0
LINE
  8
0
 62
7
 10
1875.000
 20
59792.705
 30
0
 11
1875.000
 21
59792.705
 31
0
  0
LINE
  8
0
 62
7
 10
1875.000
 20
59792.705
 30
0
 11
1925.000
 21
59816.650
 31
0
  0
LINE
  8
0
 62
7
 10
1925.000
 20
59816.650
 30
0
 11
1925.000
 21
59816.650
 31
0
  0
LINE
  8
0
 62
7
 10
1925.000
 20
59816.650
 30
0
 11
1875.000
 21
59792.705
 31
0
999
- - - Line Data - - -
  0
LINE
  8
0
 62
7
 10
3630.000
 20
60059.878
 30
0
 11
3630.000
 21
60059.878
 31
0
  0
LINE
  8
0
 62
7
 10
3630.000
 20
60059.878
 30
0
 11
3705.000
 21
60061.465
 31
0
  0
LINE
  8
0
 62
7
 10
3705.000
 20
60061.465
 30
0
 11
3705.000
 21
60061.465
 31
0
  0
LINE
  8
0
 62
7
 10
3705.000
 20
60061.465
 30
0
 11
3630.000
 21
60059.878
 31
0
999
- - - Line Data - - -
  0
LINE
  8
0
 62
7
 10
4255.000
 20
59863.501
 30
0
 11
4255.000
 21
59918.999
 31
0
  0
LINE
  8
0
 62
7
 10
4255.000
 20
59918.999
 30
0
 11
4280.000
 21
59923.999
 31
0
  0
LINE
  8
0
 62
7
 10
4280.000
 20
59923.999
 30
0
 11
4280.000
 21
59872.798
 31
0
  0
LINE
  8
0
 62
7
 10
4280.000
 20
59872.798
 30
0
 11
4255.000
 21
59863.501
 31
0
999
- - - Line Data - - -
  0
LINE
  8
0
 62
7
 10
1875.000
 20
59490.098
 30
0
 11
1844.739
 21
59490.098
 31
0
  0
LINE
  8
0
 62
7
 10
1844.739
 20
59490.098
 30
0
 11
1875.000
 21
59792.705
 31
0
  0
LINE
  8
0
 62
7
 10
1875.000
 20
59792.705
 30
0
 11
1925.000
 21
59816.650
 31
0
  0
LINE
  8
0
 62
7
 10
1925.000
 20
59816.650
 30
0
 11
1930.000
 21
59766.650
 31
0
  0
LINE
  8
0
 62
7
 10
1930.000
 20
59766.650
 30
0
 11
1930.000
 21
59500.098
 31
0
  0
LINE
  8
0
 62
7
 10
1930.000
 20
59500.098
 30
0
 11
1925.000
 21
59500.098
 31
0
999
- - - Line Data - - -
  0
LINE
  8
0
 62
7
 10
3630.000
 20
59635.098
 30
0
 11
3630.000
 21
60059.878
 31
0
  0
LINE
  8
0
 62
7
 10
3630.000
 20
60059.878
 30
0
 11
3705.000
 21
60061.465
 31
0
  0
LINE
  8
0
 62
7
 10
3705.000
 20
60061.465
 30
0
 11
3705.000
 21
59650.098
 31
0
999
- - - Line Data - - -
  0
LINE
  8
0
 62
7
 10
4255.000
 20
59674.102
 30
0
 11
4255.000
 21
59918.999
 31
0
  0
LINE
  8
0
 62
7
 10
4255.000
 20
59918.999
 30
0
 11
4280.000
 21
59923.999
 31
0
  0
LINE
  8
0
 62
7
 10
4280.000
 20
59923.999
 30
0
 11
4280.000
 21
59678.101
 31
0
999
- - - Line Data - - -
  0
LINE
  8
0
 62
7
 10
560.000
 20
59450.098
 30
0
 11
1100.000
 21
59460.098
 31
0
  0
LINE
  8
0
 62
7
 10
1100.000
 20
59460.098
 30
0
 11
1130.000
 21
59470.098
 31
0
  0
LINE
  8
0
 62
7
 10
1130.000
 20
59470.098
 30
0
 11
1470.000
 21
59480.098
 31
0
  0
LINE
  8
0
 62
7
 10
1470.000
 20
59480.098
 30
0
 11
1810.000
 21
59490.098
 31
0
  0
LINE
  8
0
 62
7
 10
1810.000
 20
59490.098
 30
0
 11
1875.000
 21
59490.098
 31
0
  0
LINE
  8
0
 62
7
 10
1875.000
 20
59490.098
 30
0
 11
1925.000
 21
59500.098
 31
0
  0
LINE
  8
0
 62
7
 10
1925.000
 20
59500.098
 30
0
 11
1930.000
 21
59500.098
 31
0
  0
LINE
  8
0
 62
7
 10
1930.000
 20
59500.098
 30
0
 11
2705.000
 21
59570.098
 31
0
  0
LINE
  8
0
 62
7
 10
2705.000
 20
59570.098
 30
0
 11
3135.000
 21
59610.098
 31
0
  0
LINE
  8
0
 62
7
 10
3135.000
 20
59610.098
 30
0
 11
3595.000
 21
59635.098
 31
0
  0
LINE
  8
0
 62
7
 10
3595.000
 20
59635.098
 30
0
 11
3630.000
 21
59635.098
 31
0
  0
LINE
  8
0
 62
7
 10
3630.000
 20
59635.098
 30
0
 11
3705.000
 21
59650.098
 31
0
  0
LINE
  8
0
 62
7
 10
3705.000
 20
59650.098
 30
0
 11
3715.000
 21
59650.098
 31
0
  0
LINE
  8
0
 62
7
 10
3715.000
 20
59650.098
 30
0
 11
4015.000
 21
59670.098
 31
0
  0
LINE
  8
0
 62
7
 10
4015.000
 20
59670.098
 30
0
 11
4245.000
 21
59674.102
 31
0
  0
LINE
  8
0
 62
7
 10
4245.000
 20
59674.102
 30
0
 11
4255.000
 21
59674.102
 31
0
  0
LINE
  8
0
 62
7
 10
4255.000
 20
59674.102
 30
0
 11
4280.000
 21
59678.101
 31
0
  0
LINE
  8
0
 62
7
 10
4280.000
 20
59678.101
 30
0
 11
4285.000
 21
59678.101
 31
0
  0
LINE
  8
0
 62
7
 10
4285.000
 20
59678.101
 30
0
 11
5010.000
 21
59752.100
 31
0
999
- - - Symbol Data - - -
  0
LINE
  8
0
 62
7
 10
558.768
 20
59448.866
 30
0
 11
558.768
 21
59451.329
 31
0
  0
LINE
  8
0
 62
7
 10
558.768
 20
59451.329
 30
0
 11
561.232
 21
59451.329
 31
0
  0
LINE
  8
0
 62
7
 10
561.232
 20
59451.329
 30
0
 11
561.232
 21
59448.866
 31
0
  0
LINE
  8
0
 62
7
 10
561.232
 20
59448.866
 30
0
 11
558.768
 21
59448.866
 31
0
  0
LINE
  8
0
 62
7
 10
1098.768
 20
59458.866
 30
0
 11
1098.768
 21
59461.329
 31
0
  0
LINE
  8
0
 62
7
 10
1098.768
 20
59461.329
 30
0
 11
1101.232
 21
59461.329
 31
0
  0
LINE
  8
0
 62
7
 10
1101.232
 20
59461.329
 30
0
 11
1101.232
 21
59458.866
 31
0
  0
LINE
  8
0
 62
7
 10
1101.232
 20
59458.866
 30
0
 11
1098.768
 21
59458.866
 31
0
  0
LINE
  8
0
 62
7
 10
1128.768
 20
59468.866
 30
0
 11
1128.768
 21
59471.329
 31
0
  0
LINE
  8
0
 62
7
 10
1128.768
 20
59471.329
 30
0
 11
1131.232
 21
59471.329
 31
0
  0
LINE
  8
0
 62
7
 10
1131.232
 20
59471.329
 30
0
 11
1131.232
 21
59468.866
 31
0
  0
LINE
  8
0
 62
7
 10
1131.232
 20
59468.866
 30
0
 11
1128.768
 21
59468.866
 31
0
  0
LINE
  8
0
 62
7
 10
1468.768
 20
59478.866
 30
0
 11
1468.768
 21
59481.329
 31
0
  0
LINE
  8
0
 62
7
 10
1468.768
 20
59481.329
 30
0
 11
1471.232
 21
59481.329
 31
0
  0
LINE
  8
0
 62
7
 10
1471.232
 20
59481.329
 30
0
 11
1471.232
 21
59478.866
 31
0
  0
LINE
  8
0
 62
7
 10
1471.232
 20
59478.866
 30
0
 11
1468.768
 21
59478.866
 31
0
  0
LINE
  8
0
 62
7
 10
1808.768
 20
59488.866
 30
0
 11
1808.768
 21
59491.329
 31
0
  0
LINE
  8
0
 62
7
 10
1808.768
 20
59491.329
 30
0
 11
1811.232
 21
59491.329
 31
0
  0
LINE
  8
0
 62
7
 10
1811.232
 20
59491.329
 30
0
 11
1811.232
 21
59488.866
 31
0
  0
LINE
  8
0
 62
7
 10
1811.232
 20
59488.866
 30
0
 11
1808.768
 21
59488.866
 31
0
  0
LINE
  8
0
 62
7
 10
1873.768
 20
59488.866
 30
0
 11
1873.768
 21
59491.329
 31
0
  0
LINE
  8
0
 62
7
 10
1873.768
 20
59491.329
 30
0
 11
1876.232
 21
59491.329
 31
0
  0
LINE
  8
0
 62
7
 10
1876.232
 20
59491.329
 30
0
 11
1876.232
 21
59488.866
 31
0
  0
LINE
  8
0
 62
7
 10
1876.232
 20
59488.866
 30
0
 11
1873.768
 21
59488.866
 31
0
  0
LINE
  8
0
 62
7
 10
1923.768
 20
59498.866
 30
0
 11
1923.768
 21
59501.329
 31
0
  0
LINE
  8
0
 62
7
 10
1923.768
 20
59501.329
 30
0
 11
1926.232
 21
59501.329
 31
0
  0
LINE
  8
0
 62
7
 10
1926.232
 20
59501.329
 30
0
 11
1926.232
 21
59498.866
 31
0
  0
LINE
  8
0
 62
7
 10
1926.232
 20
59498.866
 30
0
 11
1923.768
 21
59498.866
 31
0
  0
LINE
  8
0
 62
7
 10
1928.768
 20
59498.866
 30
0
 11
1928.768
 21
59501.329
 31
0
  0
LINE
  8
0
 62
7
 10
1928.768
 20
59501.329
 30
0
 11
1931.232
 21
59501.329
 31
0
  0
LINE
  8
0
 62
7
 10
1931.232
 20
59501.329
 30
0
 11
1931.232
 21
59498.866
 31
0
  0
LINE
  8
0
 62
7
 10
1931.232
 20
59498.866
 30
0
 11
1928.768
 21
59498.866
 31
0
  0
LINE
  8
0
 62
7
 10
2703.768
 20
59568.866
 30
0
 11
2703.768
 21
59571.329
 31
0
  0
LINE
  8
0
 62
7
 10
2703.768
 20
59571.329
 30
0
 11
2706.232
 21
59571.329
 31
0
  0
LINE
  8
0
 62
7
 10
2706.232
 20
59571.329
 30
0
 11
2706.232
 21
59568.866
 31
0
  0
LINE
  8
0
 62
7
 10
2706.232
 20
59568.866
 30
0
 11
2703.768
 21
59568.866
 31
0
  0
LINE
  8
0
 62
7
 10
3133.768
 20
59608.866
 30
0
 11
3133.768
 21
59611.329
 31
0
  0
LINE
  8
0
 62
7
 10
3133.768
 20
59611.329
 30
0
 11
3136.232
 21
59611.329
 31
0
  0
LINE
  8
0
 62
7
 10
3136.232
 20
59611.329
 30
0
 11
3136.232
 21
59608.866
 31
0
  0
LINE
  8
0
 62
7
 10
3136.232
 20
59608.866
 30
0
 11
3133.768
 21
59608.866
 31
0
  0
LINE
  8
0
 62
7
 10
3593.768
 20
59633.866
 30
0
 11
3593.768
 21
59636.329
 31
0
  0
LINE
  8
0
 62
7
 10
3593.768
 20
59636.329
 30
0
 11
3596.232
 21
59636.329
 31
0
  0
LINE
  8
0
 62
7
 10
3596.232
 20
59636.329
 30
0
 11
3596.232
 21
59633.866
 31
0
  0
LINE
  8
0
 62
7
 10
3596.232
 20
59633.866
 30
0
 11
3593.768
 21
59633.866
 31
0
  0
LINE
  8
0
 62
7
 10
3628.768
 20
59633.866
 30
0
 11
3628.768
 21
59636.329
 31
0
  0
LINE
  8
0
 62
7
 10
3628.768
 20
59636.329
 30
0
 11
3631.232
 21
59636.329
 31
0
  0
LINE
  8
0
 62
7
 10
3631.232
 20
59636.329
 30
0
 11
3631.232
 21
59633.866
 31
0
  0
LINE
  8
0
 62
7
 10
3631.232
 20
59633.866
 30
0
 11
3628.768
 21
59633.866
 31
0
  0
LINE
  8
0
 62
7
 10
3703.768
 20
59648.866
 30
0
 11
3703.768
 21
59651.329
 31
0
  0
LINE
  8
0
 62
7
 10
3703.768
 20
59651.329
 30
0
 11
3706.232
 21
59651.329
 31
0
  0
LINE
  8
0
 62
7
 10
3706.232
 20
59651.329
 30
0
 11
3706.232
 21
59648.866
 31
0
  0
LINE
  8
0
 62
7
 10
3706.232
 20
59648.866
 30
0
 11
3703.768
 21
59648.866
 31
0
  0
LINE
  8
0
 62
7
 10
3713.768
 20
59648.866
 30
0
 11
3713.768
 21
59651.329
 31
0
  0
LINE
  8
0
 62
7
 10
3713.768
 20
59651.329
 30
0
 11
3716.232
 21
59651.329
 31
0
  0
LINE
  8
0
 62
7
 10
3716.232
 20
59651.329
 30
0
 11
3716.232
 21
59648.866
 31
0
  0
LINE
  8
0
 62
7
 10
3716.232
 20
59648.866
 30
0
 11
3713.768
 21
59648.866
 31
0
  0
LINE
  8
0
 62
7
 10
4013.768
 20
59668.866
 30
0
 11
4013.768
 21
59671.329
 31
0
  0
LINE
  8
0
 62
7
 10
4013.768
 20
59671.329
 30
0
 11
4016.232
 21
59671.329
 31
0
  0
LINE
  8
0
 62
7
 10
4016.232
 20
59671.329
 30
0
 11
4016.232
 21
59668.866
 31
0
  0
LINE
  8
0
 62
7
 10
4016.232
 20
59668.866
 30
0
 11
4013.768
 21
59668.866
 31
0
  0
LINE
  8
0
 62
7
 10
4243.768
 20
59672.870
 30
0
 11
4243.768
 21
59675.333
 31
0
  0
LINE
  8
0
 62
7
 10
4243.768
 20
59675.333
 30
0
 11
4246.232
 21
59675.333
 31
0
  0
LINE
  8
0
 62
7
 10
4246.232
 20
59675.333
 30
0
 11
4246.232
 21
59672.870
 31
0
  0
LINE
  8
0
 62
7
 10
4246.232
 20
59672.870
 30
0
 11
4243.768
 21
59672.870
 31
0
  0
LINE
  8
0
 62
7
 10
4253.768
 20
59672.870
 30
0
 11
4253.768
 21
59675.333
 31
0
  0
LINE
  8
0
 62
7
 10
4253.768
 20
59675.333
 30
0
 11
4256.232
 21
59675.333
 31
0
  0
LINE
  8
0
 62
7
 10
4256.232
 20
59675.333
 30
0
 11
4256.232
 21
59672.870
 31
0
  0
LINE
  8
0
 62
7
 10
4256.232
 20
59672.870
 30
0
 11
4253.768
 21
59672.870
 31
0
  0
LINE
  8
0
 62
7
 10
4278.768
 20
59676.869
 30
0
 11
4278.768
 21
59679.332
 31
0
  0
LINE
  8
0
 62
7
 10
4278.768
 20
59679.332
 30
0
 11
4281.232
 21
59679.332
 31
0
  0
LINE
  8
0
 62
7
 10
4281.232
 20
59679.332
 30
0
 11
4281.232
 21
59676.869
 31
0
  0
LINE
  8
0
 62
7
 10
4281.232
 20
59676.869
 30
0
 11
4278.768
 21
59676.869
 31
0
  0
LINE
  8
0
 62
7
 10
4283.768
 20
59676.869
 30
0
 11
4283.768
 21
59679.332
 31
0
  0
LINE
  8
0
 62
7
 10
4283.768
 20
59679.332
 30
0
 11
4286.232
 21
59679.332
 31
0
  0
LINE
  8
0
 62
7
 10
4286.232
 20
59679.332
 30
0
 11
4286.232
 21
59676.869
 31
0
  0
LINE
  8
0
 62
7
 10
4286.232
 20
59676.869
 30
0
 11
4283.768
 21
59676.869
 31
0
  0
LINE
  8
0
 62
7
 10
5008.768
 20
59750.868
 30
0
 11
5008.768
 21
59753.331
 31
0
  0
LINE
  8
0
 62
7
 10
5008.768
 20
59753.331
 30
0
 11
5011.232
 21
59753.331
 31
0
  0
LINE
  8
0
 62
7
 10
5011.232
 20
59753.331
 30
0
 11
5011.232
 21
59750.868
 31
0
  0
LINE
  8
0
 62
7
 10
5011.232
 20
59750.868
 30
0
 11
5008.768
 21
59750.868
 31
0
999
- - - Line Data - - -
  0
LINE
  8
0
 62
4
 10
560.000
 20
59622.197
 30
0
 11
1100.000
 21
59677.588
 31
0
  0
LINE
  8
0
 62
4
 10
1100.000
 20
59677.588
 30
0
 11
1130.000
 21
59691.704
 31
0
  0
LINE
  8
0
 62
4
 10
1130.000
 20
59691.704
 30
0
 11
1470.000
 21
59700.830
 31
0
  0
LINE
  8
0
 62
4
 10
1470.000
 20
59700.830
 30
0
 11
1810.000
 21
59715.039
 31
0
  0
LINE
  8
0
 62
4
 10
1810.000
 20
59715.039
 30
0
 11
1875.000
 21
59715.850
 31
0
  0
LINE
  8
0
 62
4
 10
1875.000
 20
59715.850
 30
0
 11
1925.000
 21
59716.313
 31
0
  0
LINE
  8
0
 62
4
 10
1925.000
 20
59716.313
 30
0
 11
1930.000
 21
59716.372
 31
0
  0
LINE
  8
0
 62
4
 10
1930.000
 20
59716.372
 30
0
 11
2705.000
 21
59710.537
 31
0
  0
LINE
  8
0
 62
4
 10
2705.000
 20
59710.537
 30
0
 11
3135.000
 21
59744.946
 31
0
  0
LINE
  8
0
 62
4
 10
3135.000
 20
59744.946
 30
0
 11
3595.000
 21
59794.805
 31
0
  0
LINE
  8
0
 62
4
 10
3595.000
 20
59794.805
 30
0
 11
3630.000
 21
59796.948
 31
0
  0
LINE
  8
0
 62
4
 10
3630.000
 20
59796.948
 30
0
 11
3705.000
 21
59834.629
 31
0
  0
LINE
  8
0
 62
4
 10
3705.000
 20
59834.629
 30
0
 11
3715.000
 21
59839.297
 31
0
  0
LINE
  8
0
 62
4
 10
3715.000
 20
59839.297
 30
0
 11
4015.000
 21
59846.069
 31
0
  0
LINE
  8
0
 62
4
 10
4015.000
 20
59846.069
 30
0
 11
4245.000
 21
59850.483
 31
0
  0
LINE
  8
0
 62
4
 10
4245.000
 20
59850.483
 30
0
 11
4255.000
 21
59838.643
 31
0
  0
LINE
  8
0
 62
4
 10
4255.000
 20
59838.643
 30
0
 11
4280.000
 21
59849.482
 31
0
  0
LINE
  8
0
 62
4
 10
4280.000
 20
59849.482
 30
0
 11
4285.000
 21
59868.203
 31
0
  0
LINE
  8
0
 62
4
 10
4285.000
 20
59868.203
 30
0
 11
5010.000
 21
59884.209
 31
0
999
- - - Line Data - - -
  0
LINE
  8
0
 62
4
 10
560.000
 20
59555.317
 30
0
 11
1100.000
 21
59599.307
 31
0
  0
LINE
  8
0
 62
4
 10
1100.000
 20
59599.307
 30
0
 11
1130.000
 21
59608.140
 31
0
  0
LINE
  8
0
 62
4
 10
1130.000
 20
59608.140
 30
0
 11
1470.000
 21
59612.373
 31
0
  0
LINE
  8
0
 62
4
 10
1470.000
 20
59612.373
 30
0
 11
1810.000
 21
59621.934
 31
0
  0
LINE
  8
0
 62
4
 10
1810.000
 20
59621.934
 30
0
 11
1875.000
 21
59622.422
 31
0
  0
LINE
  8
0
 62
4
 10
1875.000
 20
59622.422
 30
0
 11
1925.000
 21
59624.268
 31
0
  0
LINE
  8
0
 62
4
 10
1925.000
 20
59624.268
 30
0
 11
1930.000
 21
59624.854
 31
0
  0
LINE
  8
0
 62
4
 10
1930.000
 20
59624.854
 30
0
 11
2705.000
 21
59651.616
 31
0
  0
LINE
  8
0
 62
4
 10
2705.000
 20
59651.616
 30
0
 11
3135.000
 21
59688.726
 31
0
  0
LINE
  8
0
 62
4
 10
3135.000
 20
59688.726
 30
0
 11
3595.000
 21
59734.277
 31
0
  0
LINE
  8
0
 62
4
 10
3595.000
 20
59734.277
 30
0
 11
3630.000
 21
59745.181
 31
0
  0
LINE
  8
0
 62
4
 10
3630.000
 20
59745.181
 30
0
 11
3705.000
 21
59747.744
 31
0
  0
LINE
  8
0
 62
4
 10
3705.000
 20
59747.744
 30
0
 11
3715.000
 21
59765.483
 31
0
  0
LINE
  8
0
 62
4
 10
3715.000
 20
59765.483
 30
0
 11
4015.000
 21
59772.300
 31
0
  0
LINE
  8
0
 62
4
 10
4015.000
 20
59772.300
 30
0
 11
4245.000
 21
59777.686
 31
0
  0
LINE
  8
0
 62
4
 10
4245.000
 20
59777.686
 30
0
 11
4255.000
 21
59784.229
 31
0
  0
LINE
  8
0
 62
4
 10
4255.000
 20
59784.229
 30
0
 11
4280.000
 21
59782.822
 31
0
  0
LINE
  8
0
 62
4
 10
4280.000
 20
59782.822
 30
0
 11
4285.000
 21
59796.357
 31
0
  0
LINE
  8
0
 62
4
 10
4285.000
 20
59796.357
 30
0
 11
5010.000
 21
59832.813
 31
0
999
- - - Symbol Data - - -
  0
LINE
  8
0
 62
4
 10
558.768
 20
59554.496
 30
0
 11
561.232
 21
59554.496
 31
0
  0
LINE
  8
0
 62
4
 10
560.000
 20
59556.960
 30
0
 11
561.232
 21
59554.496
 31
0
  0
LINE
  8
0
 62
4
 10
560.000
 20
59556.960
 30
0
 11
558.768
 21
59554.496
 31
0
  0
LINE
  8
0
 62
4
 10
1098.768
 20
59598.486
 30
0
 11
1101.232
 21
59598.486
 31
0
  0
LINE
  8
0
 62
4
 10
1100.000
 20
59600.949
 30
0
 11
1101.232
 21
59598.486
 31
0
  0
LINE
  8
0
 62
4
 10
1100.000
 20
59600.949
 30
0
 11
1098.768
 21
59598.486
 31
0
  0
LINE
  8
0
 62
4
 10
1128.768
 20
59607.319
 30
0
 11
1131.232
 21
59607.319
 31
0
  0
LINE
  8
0
 62
4
 10
1130.000
 20
59609.782
 30
0
 11
1131.232
 21
59607.319
 31
0
  0
LINE
  8
0
 62
4
 10
1130.000
 20
59609.782
 30
0
 11
1128.768
 21
59607.319
 31
0
  0
LINE
  8
0
 62
4
 10
1468.768
 20
59611.552
 30
0
 11
1471.232
 21
59611.552
 31
0
  0
LINE
  8
0
 62
4
 10
1470.000
 20
59614.015
 30
0
 11
1471.232
 21
59611.552
 31
0
  0
LINE
  8
0
 62
4
 10
1470.000
 20
59614.015
 30
0
 11
1468.768
 21
59611.552
 31
0
  0
LINE
  8
0
 62
4
 10
1808.768
 20
59621.112
 30
0
 11
1811.232
 21
59621.112
 31
0
  0
LINE
  8
0
 62
4
 10
1810.000
 20
59623.576
 30
0
 11
1811.232
 21
59621.112
 31
0
  0
LINE
  8
0
 62
4
 10
1810.000
 20
59623.576
 30
0
 11
1808.768
 21
59621.112
 31
0
  0
LINE
  8
0
 62
4
 10
1873.768
 20
59621.601
 30
0
 11
1876.232
 21
59621.601
 31
0
  0
LINE
  8
0
 62
4
 10
1875.000
 20
59624.064
 30
0
 11
1876.232
 21
59621.601
 31
0
  0
LINE
  8
0
 62
4
 10
1875.000
 20
59624.064
 30
0
 11
1873.768
 21
59621.601
 31
0
  0
LINE
  8
0
 62
4
 10
1923.768
 20
59623.446
 30
0
 11
1926.232
 21
59623.446
 31
0
  0
LINE
  8
0
 62
4
 10
1925.000
 20
59625.910
 30
0
 11
1926.232
 21
59623.446
 31
0
  0
LINE
  8
0
 62
4
 10
1925.000
 20
59625.910
 30
0
 11
1923.768
 21
59623.446
 31
0
  0
LINE
  8
0
 62
4
 10
1928.768
 20
59624.032
 30
0
 11
1931.232
 21
59624.032
 31
0
  0
LINE
  8
0
 62
4
 10
1930.000
 20
59626.496
 30
0
 11
1931.232
 21
59624.032
 31
0
  0
LINE
  8
0
 62
4
 10
1930.000
 20
59626.496
 30
0
 11
1928.768
 21
59624.032
 31
0
  0
LINE
  8
0
 62
4
 10
2703.768
 20
59650.795
 30
0
 11
2706.232
 21
59650.795
 31
0
  0
LINE
  8
0
 62
4
 10
2705.000
 20
59653.258
 30
0
 11
2706.232
 21
59650.795
 31
0
  0
LINE
  8
0
 62
4
 10
2705.000
 20
59653.258
 30
0
 11
2703.768
 21
59650.795
 31
0
  0
LINE
  8
0
 62
4
 10
3133.768
 20
59687.904
 30
0
 11
3136.232
 21
59687.904
 31
0
  0
LINE
  8
0
 62
4
 10
3135.000
 20
59690.368
 30
0
 11
3136.232
 21
59687.904
 31
0
  0
LINE
  8
0
 62
4
 10
3135.000
 20
59690.368
 30
0
 11
3133.768
 21
59687.904
 31
0
  0
LINE
  8
0
 62
4
 10
3593.768
 20
59733.456
 30
0
 11
3596.232
 21
59733.456
 31
0
  0
LINE
  8
0
 62
4
 10
3595.000
 20
59735.920
 30
0
 11
3596.232
 21
59733.456
 31
0
  0
LINE
  8
0
 62
4
 10
3595.000
 20
59735.920
 30
0
 11
3593.768
 21
59733.456
 31
0
  0
LINE
  8
0
 62
4
 10
3628.768
 20
59744.360
 30
0
 11
3631.232
 21
59744.360
 31
0
  0
LINE
  8
0
 62
4
 10
3630.000
 20
59746.823
 30
0
 11
3631.232
 21
59744.360
 31
0
  0
LINE
  8
0
 62
4
 10
3630.000
 20
59746.823
 30
0
 11
3628.768
 21
59744.360
 31
0
  0
LINE
  8
0
 62
4
 10
3703.768
 20
59746.923
 30
0
 11
3706.232
 21
59746.923
 31
0
  0
LINE
  8
0
 62
4
 10
3705.000
 20
59749.386
 30
0
 11
3706.232
 21
59746.923
 31
0
  0
LINE
  8
0
 62
4
 10
3705.000
 20
59749.386
 30
0
 11
3703.768
 21
59746.923
 31
0
  0
LINE
  8
0
 62
4
 10
3713.768
 20
59764.662
 30
0
 11
3716.232
 21
59764.662
 31
0
  0
LINE
  8
0
 62
4
 10
3715.000
 20
59767.126
 30
0
 11
3716.232
 21
59764.662
 31
0
  0
LINE
  8
0
 62
4
 10
3715.000
 20
59767.126
 30
0
 11
3713.768
 21
59764.662
 31
0
  0
LINE
  8
0
 62
4
 10
4013.768
 20
59771.479
 30
0
 11
4016.232
 21
59771.479
 31
0
  0
LINE
  8
0
 62
4
 10
4015.000
 20
59773.942
 30
0
 11
4016.232
 21
59771.479
 31
0
  0
LINE
  8
0
 62
4
 10
4015.000
 20
59773.942
 30
0
 11
4013.768
 21
59771.479
 31
0
  0
LINE
  8
0
 62
4
 10
4243.768
 20
59776.864
 30
0
 11
4246.232
 21
59776.864
 31
0
  0
LINE
  8
0
 62
4
 10
4245.000
 20
59779.328
 30
0
 11
4246.232
 21
59776.864
 31
0
  0
LINE
  8
0
 62
4
 10
4245.000
 20
59779.328
 30
0
 11
4243.768
 21
59776.864
 31
0
  0
LINE
  8
0
 62
4
 10
4253.768
 20
59783.407
 30
0
 11
4256.232
 21
59783.407
 31
0
  0
LINE
  8
0
 62
4
 10
4255.000
 20
59785.871
 30
0
 11
4256.232
 21
59783.407
 31
0
  0
LINE
  8
0
 62
4
 10
4255.000
 20
59785.871
 30
0
 11
4253.768
 21
59783.407
 31
0
  0
LINE
  8
0
 62
4
 10
4278.768
 20
59782.001
 30
0
 11
4281.232
 21
59782.001
 31
0
  0
LINE
  8
0
 62
4
 10
4280.000
 20
59784.464
 30
0
 11
4281.232
 21
59782.001
 31
0
  0
LINE
  8
0
 62
4
 10
4280.000
 20
59784.464
 30
0
 11
4278.768
 21
59782.001
 31
0
  0
LINE
  8
0
 62
4
 10
4283.768
 20
59795.536
 30
0
 11
4286.232
 21
59795.536
 31
0
  0
LINE
  8
0
 62
4
 10
4285.000
 20
59798.000
 30
0
 11
4286.232
 21
59795.536
 31
0
  0
LINE
  8
0
 62
4
 10
4285.000
 20
59798.000
 30
0
 11
4283.768
 21
59795.536
 31
0
  0
LINE
  8
0
 62
4
 10
5008.768
 20
59831.991
 30
0
 11
5011.232
 21
59831.991
 31
0
  0
LINE
  8
0
 62
4
 10
5010.000
 20
59834.455
 30
0
 11
5011.232
 21
59831.991
 31
0
  0
LINE
  8
0
 62
4
 10
5010.000
 20
59834.455
 30
0
 11
5008.768
 21
59831.991
 31
0
999
- - - Line Data - - -
  0
LINE
  8
0
 62
4
 10
560.000
 20
59599.009
 30
0
 11
1100.000
 21
59651.035
 31
0
  0
LINE
  8
0
 62
4
 10
1100.000
 20
59651.035
 30
0
 11
1130.000
 21
59661.035
 31
0
  0
LINE
  8
0
 62
4
 10
1130.000
 20
59661.035
 30
0
 11
1470.000
 21
59668.340
 31
0
  0
LINE
  8
0
 62
4
 10
1470.000
 20
59668.340
 30
0
 11
1810.000
 21
59680.811
 31
0
  0
LINE
  8
0
 62
4
 10
1810.000
 20
59680.811
 30
0
 11
1875.000
 21
59681.328
 31
0
  0
LINE
  8
0
 62
4
 10
1875.000
 20
59681.328
 30
0
 11
1925.000
 21
59682.207
 31
0
  0
LINE
  8
0
 62
4
 10
1925.000
 20
59682.207
 30
0
 11
1930.000
 21
59682.554
 31
0
  0
LINE
  8
0
 62
4
 10
1930.000
 20
59682.554
 30
0
 11
2705.000
 21
59689.063
 31
0
  0
LINE
  8
0
 62
4
 10
2705.000
 20
59689.063
 30
0
 11
3135.000
 21
59724.019
 31
0
  0
LINE
  8
0
 62
4
 10
3135.000
 20
59724.019
 30
0
 11
3595.000
 21
59773.018
 31
0
  0
LINE
  8
0
 62
4
 10
3595.000
 20
59773.018
 30
0
 11
3630.000
 21
59774.009
 31
0
  0
LINE
  8
0
 62
4
 10
3630.000
 20
59774.009
 30
0
 11
3705.000
 21
59809.170
 31
0
  0
LINE
  8
0
 62
4
 10
3705.000
 20
59809.170
 30
0
 11
3715.000
 21
59813.564
 31
0
  0
LINE
  8
0
 62
4
 10
3715.000
 20
59813.564
 30
0
 11
4015.000
 21
59820.015
 31
0
  0
LINE
  8
0
 62
4
 10
4015.000
 20
59820.015
 30
0
 11
4245.000
 21
59824.683
 31
0
  0
LINE
  8
0
 62
4
 10
4245.000
 20
59824.683
 30
0
 11
4255.000
 21
59817.285
 31
0
  0
LINE
  8
0
 62
4
 10
4255.000
 20
59817.285
 30
0
 11
4280.000
 21
59822.485
 31
0
  0
LINE
  8
0
 62
4
 10
4280.000
 20
59822.485
 30
0
 11
4285.000
 21
59841.084
 31
0
  0
LINE
  8
0
 62
4
 10
4285.000
 20
59841.084
 30
0
 11
5010.000
 21
59865.371
 31
0
999
- - - Symbol Data - - -
  0
LINE
  8
0
 62
4
 10
558.768
 20
59599.830
 30
0
 11
561.232
 21
59599.830
 31
0
  0
LINE
  8
0
 62
4
 10
560.000
 20
59597.367
 30
0
 11
561.232
 21
59599.830
 31
0
  0
LINE
  8
0
 62
4
 10
560.000
 20
59597.367
 30
0
 11
558.768
 21
59599.830
 31
0
  0
LINE
  8
0
 62
4
 10
1098.768
 20
59651.856
 30
0
 11
1101.232
 21
59651.856
 31
0
  0
LINE
  8
0
 62
4
 10
1100.000
 20
59649.393
 30
0
 11
1101.232
 21
59651.856
 31
0
  0
LINE
  8
0
 62
4
 10
1100.000
 20
59649.393
 30
0
 11
1098.768
 21
59651.856
 31
0
  0
LINE
  8
0
 62
4
 10
1128.768
 20
59661.856
 30
0
 11
1131.232
 21
59661.856
 31
0
  0
LINE
  8
0
 62
4
 10
1130.000
 20
59659.393
 30
0
 11
1131.232
 21
59661.856
 31
0
  0
LINE
  8
0
 62
4
 10
1130.000
 20
59659.393
 30
0
 11
1128.768
 21
59661.856
 31
0
  0
LINE
  8
0
 62
4
 10
1468.768
 20
59669.161
 30
0
 11
1471.232
 21
59669.161
 31
0
  0
LINE
  8
0
 62
4
 10
1470.000
 20
59666.698
 30
0
 11
1471.232
 21
59669.161
 31
0
  0
LINE
  8
0
 62
4
 10
1470.000
 20
59666.698
 30
0
 11
1468.768
 21
59669.161
 31
0
  0
LINE
  8
0
 62
4
 10
1808.768
 20
59681.632
 30
0
 11
1811.232
 21
59681.632
 31
0
  0
LINE
  8
0
 62
4
 10
1810.000
 20
59679.168
 30
0
 11
1811.232
 21
59681.632
 31
0
  0
LINE
  8
0
 62
4
 10
1810.000
 20
59679.168
 30
0
 11
1808.768
 21
59681.632
 31
0
  0
LINE
  8
0
 62
4
 10
1873.768
 20
59682.149
 30
0
 11
1876.232
 21
59682.149
 31
0
  0
LINE
  8
0
 62
4
 10
1875.000
 20
59679.686
 30
0
 11
1876.232
 21
59682.149
 31
0
  0
LINE
  8
0
 62
4
 10
1875.000
 20
59679.686
 30
0
 11
1873.768
 21
59682.149
 31
0
  0
LINE
  8
0
 62
4
 10
1923.768
 20
59683.028
 30
0
 11
1926.232
 21
59683.028
 31
0
  0
LINE
  8
0
 62
4
 10
1925.000
 20
59680.565
 30
0
 11
1926.232
 21
59683.028
 31
0
  0
LINE
  8
0
 62
4
 10
1925.000
 20
59680.565
 30
0
 11
1923.768
 21
59683.028
 31
0
  0
LINE
  8
0
 62
4
 10
1928.768
 20
59683.375
 30
0
 11
1931.232
 21
59683.375
 31
0
  0
LINE
  8
0
 62
4
 10
1930.000
 20
59680.911
 30
0
 11
1931.232
 21
59683.375
 31
0
  0
LINE
  8
0
 62
4
 10
1930.000
 20
59680.911
 30
0
 11
1928.768
 21
59683.375
 31
0
  0
LINE
  8
0
 62
4
 10
2703.768
 20
59689.884
 30
0
 11
2706.232
 21
59689.884
 31
0
  0
LINE
  8
0
 62
4
 10
2705.000
 20
59687.420
 30
0
 11
2706.232
 21
59689.884
 31
0
  0
LINE
  8
0
 62
4
 10
2705.000
 20
59687.420
 30
0
 11
2703.768
 21
59689.884
 31
0
  0
LINE
  8
0
 62
4
 10
3133.768
 20
59724.840
 30
0
 11
3136.232
 21
59724.840
 31
0
  0
LINE
  8
0
 62
4
 10
3135.000
 20
59722.376
 30
0
 11
3136.232
 21
59724.840
 31
0
  0
LINE
  8
0
 62
4
 10
3135.000
 20
59722.376
 30
0
 11
3133.768
 21
59724.840
 31
0
  0
LINE
  8
0
 62
4
 10
3593.768
 20
59773.839
 30
0
 11
3596.232
 21
59773.839
 31
0
  0
LINE
  8
0
 62
4
 10
3595.000
 20
59771.375
 30
0
 11
3596.232
 21
59773.839
 31
0
  0
LINE
  8
0
 62
4
 10
3595.000
 20
59771.375
 30
0
 11
3593.768
 21
59773.839
 31
0
  0
LINE
  8
0
 62
4
 10
3628.768
 20
59774.830
 30
0
 11
3631.232
 21
59774.830
 31
0
  0
LINE
  8
0
 62
4
 10
3630.000
 20
59772.367
 30
0
 11
3631.232
 21
59774.830
 31
0
  0
LINE
  8
0
 62
4
 10
3630.000
 20
59772.367
 30
0
 11
3628.768
 21
59774.830
 31
0
  0
LINE
  8
0
 62
4
 10
3703.768
 20
59809.991
 30
0
 11
3706.232
 21
59809.991
 31
0
  0
LINE
  8
0
 62
4
 10
3705.000
 20
59807.528
 30
0
 11
3706.232
 21
59809.991
 31
0
  0
LINE
  8
0
 62
4
 10
3705.000
 20
59807.528
 30
0
 11
3703.768
 21
59809.991
 31
0
  0
LINE
  8
0
 62
4
 10
3713.768
 20
59814.386
 30
0
 11
3716.232
 21
59814.386
 31
0
  0
LINE
  8
0
 62
4
 10
3715.000
 20
59811.922
 30
0
 11
3716.232
 21
59814.386
 31
0
  0
LINE
  8
0
 62
4
 10
3715.000
 20
59811.922
 30
0
 11
3713.768
 21
59814.386
 31
0
  0
LINE
  8
0
 62
4
 10
4013.768
 20
59820.836
 30
0
 11
4016.232
 21
59820.836
 31
0
  0
LINE
  8
0
 62
4
 10
4015.000
 20
59818.372
 30
0
 11
4016.232
 21
59820.836
 31
0
  0
LINE
  8
0
 62
4
 10
4015.000
 20
59818.372
 30
0
 11
4013.768
 21
59820.836
 31
0
  0
LINE
  8
0
 62
4
 10
4243.768
 20
59825.504
 30
0
 11
4246.232
 21
59825.504
 31
0
  0
LINE
  8
0
 62
4
 10
4245.000
 20
59823.040
 30
0
 11
4246.232
 21
59825.504
 31
0
  0
LINE
  8
0
 62
4
 10
4245.000
 20
59823.040
 30
0
 11
4243.768
 21
59825.504
 31
0
  0
LINE
  8
0
 62
4
 10
4253.768
 20
59818.106
 30
0
 11
4256.232
 21
59818.106
 31
0
  0
LINE
  8
0
 62
4
 10
4255.000
 20
59815.643
 30
0
 11
4256.232
 21
59818.106
 31
0
  0
LINE
  8
0
 62
4
 10
4255.000
 20
59815.643
 30
0
 11
4253.768
 21
59818.106
 31
0
  0
LINE
  8
0
 62
4
 10
4278.768
 20
59823.306
 30
0
 11
4281.232
 21
59823.306
 31
0
  0
LINE
  8
0
 62
4
 10
4280.000
 20
59820.843
 30
0
 11
4281.232
 21
59823.306
 31
0
  0
LINE
  8
0
 62
4
 10
4280.000
 20
59820.843
 30
0
 11
4278.768
 21
59823.306
 31
0
  0
LINE
  8
0
 62
4
 10
4283.768
 20
59841.905
 30
0
 11
4286.232
 21
59841.905
 31
0
  0
LINE
  8
0
 62
4
 10
4285.000
 20
59839.442
 30
0
 11
4286.232
 21
59841.905
 31
0
  0
LINE
  8
0
 62
4
 10
4285.000
 20
59839.442
 30
0
 11
4283.768
 21
59841.905
 31
0
  0
LINE
  8
0
 62
4
 10
5008.768
 20
59866.192
 30
0
 11
5011.232
 21
59866.192
 31
0
  0
LINE
  8
0
 62
4
 10
5010.000
 20
59863.729
 30
0
 11
5011.232
 21
59866.192
 31
0
  0
LINE
  8
0
 62
4
 10
5010.000
 20
59863.729
 30
0
 11
5008.768
 21
59866.192
 31
0
999
- - - Line Data - - -
  0
LINE
  8
0
 62
4
 10
560.000
 20
59704.604
 30
0
 11
1100.000
 21
59760.420
 31
0
  0
LINE
  8
0
 62
4
 10
1100.000
 20
59760.420
 30
0
 11
1130.000
 21
59754.819
 31
0
  0
LINE
  8
0
 62
4
 10
1130.000
 20
59754.819
 30
0
 11
1470.000
 21
59765.767
 31
0
  0
LINE
  8
0
 62
4
 10
1470.000
 20
59765.767
 30
0
 11
1810.000
 21
59787.603
 31
0
  0
LINE
  8
0
 62
4
 10
1810.000
 20
59787.603
 30
0
 11
1875.000
 21
59785.601
 31
0
  0
LINE
  8
0
 62
4
 10
1875.000
 20
59785.601
 30
0
 11
1925.000
 21
59793.638
 31
0
  0
LINE
  8
0
 62
4
 10
1925.000
 20
59793.638
 30
0
 11
1930.000
 21
59796.675
 31
0
  0
LINE
  8
0
 62
4
 10
1930.000
 20
59796.675
 30
0
 11
2705.000
 21
59775.190
 31
0
  0
LINE
  8
0
 62
4
 10
2705.000
 20
59775.190
 30
0
 11
3135.000
 21
59803.447
 31
0
  0
LINE
  8
0
 62
4
 10
3135.000
 20
59803.447
 30
0
 11
3595.000
 21
59859.629
 31
0
  0
LINE
  8
0
 62
4
 10
3595.000
 20
59859.629
 30
0
 11
3630.000
 21
59864.990
 31
0
  0
LINE
  8
0
 62
4
 10
3630.000
 20
59864.990
 30
0
 11
3705.000
 21
59923.237
 31
0
  0
LINE
  8
0
 62
4
 10
3705.000
 20
59923.237
 30
0
 11
3715.000
 21
59916.748
 31
0
  0
LINE
  8
0
 62
4
 10
3715.000
 20
59916.748
 30
0
 11
4015.000
 21
59944.668
 31
0
  0
LINE
  8
0
 62
4
 10
4015.000
 20
59944.668
 30
0
 11
4245.000
 21
59944.546
 31
0
  0
LINE
  8
0
 62
4
 10
4245.000
 20
59944.546
 30
0
 11
4255.000
 21
59980.991
 31
0
  0
LINE
  8
0
 62
4
 10
4255.000
 20
59980.991
 30
0
 11
4280.000
 21
59984.990
 31
0
  0
LINE
  8
0
 62
4
 10
4280.000
 20
59984.990
 30
0
 11
4285.000
 21
60035.527
 31
0
  0
LINE
  8
0
 62
4
 10
4285.000
 20
60035.527
 30
0
 11
5010.000
 21
60041.367
 31
0
999
- - - Symbol Data - - -
  0
LINE
  8
0
 62
4
 10
558.768
 20
59703.373
 30
0
 11
561.232
 21
59705.836
 31
0
  0
LINE
  8
0
 62
4
 10
558.768
 20
59705.836
 30
0
 11
561.232
 21
59703.373
 31
0
  0
LINE
  8
0
 62
4
 10
1098.768
 20
59759.188
 30
0
 11
1101.232
 21
59761.652
 31
0
  0
LINE
  8
0
 62
4
 10
1098.768
 20
59761.652
 30
0
 11
1101.232
 21
59759.188
 31
0
  0
LINE
  8
0
 62
4
 10
1128.768
 20
59753.588
 30
0
 11
1131.232
 21
59756.051
 31
0
  0
LINE
  8
0
 62
4
 10
1128.768
 20
59756.051
 30
0
 11
1131.232
 21
59753.588
 31
0
  0
LINE
  8
0
 62
4
 10
1468.768
 20
59764.535
 30
0
 11
1471.232
 21
59766.998
 31
0
  0
LINE
  8
0
 62
4
 10
1468.768
 20
59766.998
 30
0
 11
1471.232
 21
59764.535
 31
0
  0
LINE
  8
0
 62
4
 10
1808.768
 20
59786.371
 30
0
 11
1811.232
 21
59788.834
 31
0
  0
LINE
  8
0
 62
4
 10
1808.768
 20
59788.834
 30
0
 11
1811.232
 21
59786.371
 31
0
  0
LINE
  8
0
 62
4
 10
1873.768
 20
59784.369
 30
0
 11
1876.232
 21
59786.832
 31
0
  0
LINE
  8
0
 62
4
 10
1873.768
 20
59786.832
 30
0
 11
1876.232
 21
59784.369
 31
0
  0
LINE
  8
0
 62
4
 10
1923.768
 20
59792.406
 30
0
 11
1926.232
 21
59794.869
 31
0
  0
LINE
  8
0
 62
4
 10
1923.768
 20
59794.869
 30
0
 11
1926.232
 21
59792.406
 31
0
  0
LINE
  8
0
 62
4
 10
1928.768
 20
59795.443
 30
0
 11
1931.232
 21
59797.906
 31
0
  0
LINE
  8
0
 62
4
 10
1928.768
 20
59797.906
 30
0
 11
1931.232
 21
59795.443
 31
0
  0
LINE
  8
0
 62
4
 10
2703.768
 20
59773.959
 30
0
 11
2706.232
 21
59776.422
 31
0
  0
LINE
  8
0
 62
4
 10
2703.768
 20
59776.422
 30
0
 11
2706.232
 21
59773.959
 31
0
  0
LINE
  8
0
 62
4
 10
3133.768
 20
59802.216
 30
0
 11
3136.232
 21
59804.679
 31
0
  0
LINE
  8
0
 62
4
 10
3133.768
 20
59804.679
 30
0
 11
3136.232
 21
59802.216
 31
0
  0
LINE
  8
0
 62
4
 10
3593.768
 20
59858.397
 30
0
 11
3596.232
 21
59860.861
 31
0
  0
LINE
  8
0
 62
4
 10
3593.768
 20
59860.861
 30
0
 11
3596.232
 21
59858.397
 31
0
  0
LINE
  8
0
 62
4
 10
3628.768
 20
59863.759
 30
0
 11
3631.232
 21
59866.222
 31
0
  0
LINE
  8
0
 62
4
 10
3628.768
 20
59866.222
 30
0
 11
3631.232
 21
59863.759
 31
0
  0
LINE
  8
0
 62
4
 10
3703.768
 20
59922.006
 30
0
 11
3706.232
 21
59924.469
 31
0
  0
LINE
  8
0
 62
4
 10
3703.768
 20
59924.469
 30
0
 11
3706.232
 21
59922.006
 31
0
  0
LINE
  8
0
 62
4
 10
3713.768
 20
59915.516
 30
0
 11
3716.232
 21
59917.980
 31
0
  0
LINE
  8
0
 62
4
 10
3713.768
 20
59917.980
 30
0
 11
3716.232
 21
59915.516
 31
0
  0
LINE
  8
0
 62
4
 10
4013.768
 20
59943.436
 30
0
 11
4016.232
 21
59945.900
 31
0
  0
LINE
  8
0
 62
4
 10
4013.768
 20
59945.900
 30
0
 11
4016.232
 21
59943.436
 31
0
  0
LINE
  8
0
 62
4
 10
4243.768
 20
59943.314
 30
0
 11
4246.232
 21
59945.778
 31
0
  0
LINE
  8
0
 62
4
 10
4243.768
 20
59945.778
 30
0
 11
4246.232
 21
59943.314
 31
0
  0
LINE
  8
0
 62
4
 10
4253.768
 20
59979.760
 30
0
 11
4256.232
 21
59982.223
 31
0
  0
LINE
  8
0
 62
4
 10
4253.768
 20
59982.223
 30
0
 11
4256.232
 21
59979.760
 31
0
  0
LINE
  8
0
 62
4
 10
4278.768
 20
59983.759
 30
0
 11
4281.232
 21
59986.222
 31
0
  0
LINE
  8
0
 62
4
 10
4278.768
 20
59986.222
 30
0
 11
4281.232
 21
59983.759
 31
0
  0
LINE
  8
0
 62
4
 10
4283.768
 20
60034.296
 30
0
 11
4286.232
 21
60036.759
 31
0
  0
LINE
  8
0
 62
4
 10
4283.768
 20
60036.759
 30
0
 11
4286.232
 21
60034.296
 31
0
  0
LINE
  8
0
 62
4
 10
5008.768
 20
60040.136
 30
0
 11
5011.232
 21
60042.599
 31
0
  0
LINE
  8
0
 62
4
 10
5008.768
 20
60042.599
 30
0
 11
5011.232
 21
60040.136
 31
0
  0
ENDSEC
  0
EOF
