  0
SECTION
  2
ENTITIES
999
- - - Grid Lines - - -
  0
LINE
  8
0
 62
9
 10
154000.000
 20
60000.000
 30
0
 11
154000.000
 21
59000.000
 31
0
  0
LINE
  8
0
 62
9
 10
155000.000
 20
60000.000
 30
0
 11
155000.000
 21
59000.000
 31
0
  0
LINE
  8
0
 62
9
 10
156000.000
 20
60000.000
 30
0
 11
156000.000
 21
59000.000
 31
0
  0
LINE
  8
0
 62
9
 10
157000.000
 20
60000.000
 30
0
 11
157000.000
 21
59000.000
 31
0
  0
LINE
  8
0
 62
9
 10
158000.000
 20
60000.000
 30
0
 11
158000.000
 21
59000.000
 31
0
  0
LINE
  8
0
 62
9
 10
159000.000
 20
60000.000
 30
0
 11
159000.000
 21
59000.000
 31
0
  0
LINE
  8
0
 62
9
 10
160000.000
 20
60000.000
 30
0
 11
160000.000
 21
59000.000
 31
0
  0
LINE
  8
0
 62
9
 10
161000.000
 20
60000.000
 30
0
 11
161000.000
 21
59000.000
 31
0
  0
LINE
  8
0
 62
9
 10
162000.000
 20
60000.000
 30
0
 11
162000.000
 21
59000.000
 31
0
  0
LINE
  8
0
 62
9
 10
154000.000
 20
59000.000
 30
0
 11
162000.000
 21
59000.000
 31
0
  0
LINE
  8
0
 62
9
 10
154000.000
 20
59200.000
 30
0
 11
162000.000
 21
59200.000
 31
0
  0
LINE
  8
0
 62
9
 10
154000.000
 20
59400.000
 30
0
 11
162000.000
 21
59400.000
 31
0
  0
LINE
  8
0
 62
9
 10
154000.000
 20
59600.000
 30
0
 11
162000.000
 21
59600.000
 31
0
  0
LINE
  8
0
 62
9
 10
154000.000
 20
59800.000
 30
0
 11
162000.000
 21
59800.000
 31
0
  0
LINE
  8
0
 62
9
 10
154000.000
 20
60000.000
 30
0
 11
162000.000
 21
60000.000
 31
0
  0
LINE
  8
0
 62
9
 10
154500.000
 20
60000.000
 30
0
 11
154500.000
 21
59000.000
 31
0
  0
LINE
  8
0
 62
9
 10
155500.000
 20
60000.000
 30
0
 11
155500.000
 21
59000.000
 31
0
  0
LINE
  8
0
 62
9
 10
156500.000
 20
60000.000
 30
0
 11
156500.000
 21
59000.000
 31
0
  0
LINE
  8
0
 62
9
 10
157500.000
 20
60000.000
 30
0
 11
157500.000
 21
59000.000
 31
0
  0
LINE
  8
0
 62
9
 10
158500.000
 20
60000.000
 30
0
 11
158500.000
 21
59000.000
 31
0
  0
LINE
  8
0
 62
9
 10
159500.000
 20
60000.000
 30
0
 11
159500.000
 21
59000.000
 31
0
  0
LINE
  8
0
 62
9
 10
160500.000
 20
60000.000
 30
0
 11
160500.000
 21
59000.000
 31
0
  0
LINE
  8
0
 62
9
 10
161500.000
 20
60000.000
 30
0
 11
161500.000
 21
59000.000
 31
0
  0
LINE
  8
0
 62
9
 10
154000.000
 20
59040.000
 30
0
 11
162000.000
 21
59040.000
 31
0
  0
LINE
  8
0
 62
9
 10
154000.000
 20
59080.000
 30
0
 11
162000.000
 21
59080.000
 31
0
  0
LINE
  8
0
 62
9
 10
154000.000
 20
59120.000
 30
0
 11
162000.000
 21
59120.000
 31
0
  0
LINE
  8
0
 62
9
 10
154000.000
 20
59160.000
 30
0
 11
162000.000
 21
59160.000
 31
0
  0
LINE
  8
0
 62
9
 10
154000.000
 20
59240.000
 30
0
 11
162000.000
 21
59240.000
 31
0
  0
LINE
  8
0
 62
9
 10
154000.000
 20
59280.000
 30
0
 11
162000.000
 21
59280.000
 31
0
  0
LINE
  8
0
 62
9
 10
154000.000
 20
59320.000
 30
0
 11
162000.000
 21
59320.000
 31
0
  0
LINE
  8
0
 62
9
 10
154000.000
 20
59360.000
 30
0
 11
162000.000
 21
59360.000
 31
0
  0
LINE
  8
0
 62
9
 10
154000.000
 20
59440.000
 30
0
 11
162000.000
 21
59440.000
 31
0
  0
LINE
  8
0
 62
9
 10
154000.000
 20
59480.000
 30
0
 11
162000.000
 21
59480.000
 31
0
  0
LINE
  8
0
 62
9
 10
154000.000
 20
59520.000
 30
0
 11
162000.000
 21
59520.000
 31
0
  0
LINE
  8
0
 62
9
 10
154000.000
 20
59560.000
 30
0
 11
162000.000
 21
59560.000
 31
0
  0
LINE
  8
0
 62
9
 10
154000.000
 20
59640.000
 30
0
 11
162000.000
 21
59640.000
 31
0
  0
LINE
  8
0
 62
9
 10
154000.000
 20
59680.000
 30
0
 11
162000.000
 21
59680.000
 31
0
  0
LINE
  8
0
 62
9
 10
154000.000
 20
59720.000
 30
0
 11
162000.000
 21
59720.000
 31
0
  0
LINE
  8
0
 62
9
 10
154000.000
 20
59760.000
 30
0
 11
162000.000
 21
59760.000
 31
0
  0
LINE
  8
0
 62
9
 10
154000.000
 20
59840.000
 30
0
 11
162000.000
 21
59840.000
 31
0
  0
LINE
  8
0
 62
9
 10
154000.000
 20
59880.000
 30
0
 11
162000.000
 21
59880.000
 31
0
  0
LINE
  8
0
 62
9
 10
154000.000
 20
59920.000
 30
0
 11
162000.000
 21
59920.000
 31
0
  0
LINE
  8
0
 62
9
 10
154000.000
 20
59960.000
 30
0
 11
162000.000
 21
59960.000
 31
0
  0
LINE
  8
0
 62
7
 10
154000.000
 20
59000.000
 30
0
 11
154000.000
 21
60000.000
 31
0
  0
LINE
  8
0
 62
7
 10
154000.000
 20
60000.000
 30
0
 11
162000.000
 21
60000.000
 31
0
  0
LINE
  8
0
 62
7
 10
162000.000
 20
60000.000
 30
0
 11
162000.000
 21
59000.000
 31
0
  0
LINE
  8
0
 62
7
 10
162000.000
 20
59000.000
 30
0
 11
154000.000
 21
59000.000
 31
0
999
- - - Axis - - -
  0
LINE
  8
0
 62
7
 10
154000.000
 20
59000.000
 30
0
 11
154000.000
 21
60000.000
 31
0
  0
LINE
  8
0
 62
7
 10
154000.000
 20
59000.000
 30
0
 11
162000.000
 21
59000.000
 31
0
  0
LINE
  8
0
 62
7
 10
154000.000
 20
59000.000
 30
0
 11
154000.000
 21
58994.995
 31
0
  0
Text
  8
0
 10
154000.000
 20
58992.493
 30
0
 40
12.51222
 50
0
  1
154000
 72
1
 11
154000.000
 21
58992.493
 31
0
 73
3
  0
LINE
  8
0
 62
7
 10
155000.000
 20
59000.000
 30
0
 11
155000.000
 21
58994.995
 31
0
  0
Text
  8
0
 10
155000.000
 20
58992.493
 30
0
 40
12.51222
 50
0
  1
155000
 72
1
 11
155000.000
 21
58992.493
 31
0
 73
3
  0
LINE
  8
0
 62
7
 10
156000.000
 20
59000.000
 30
0
 11
156000.000
 21
58994.995
 31
0
  0
Text
  8
0
 10
156000.000
 20
58992.493
 30
0
 40
12.51222
 50
0
  1
156000
 72
1
 11
156000.000
 21
58992.493
 31
0
 73
3
  0
LINE
  8
0
 62
7
 10
157000.000
 20
59000.000
 30
0
 11
157000.000
 21
58994.995
 31
0
  0
Text
  8
0
 10
157000.000
 20
58992.493
 30
0
 40
12.51222
 50
0
  1
157000
 72
1
 11
157000.000
 21
58992.493
 31
0
 73
3
  0
LINE
  8
0
 62
7
 10
158000.000
 20
59000.000
 30
0
 11
158000.000
 21
58994.995
 31
0
  0
Text
  8
0
 10
158000.000
 20
58992.493
 30
0
 40
12.51222
 50
0
  1
158000
 72
1
 11
158000.000
 21
58992.493
 31
0
 73
3
  0
LINE
  8
0
 62
7
 10
159000.000
 20
59000.000
 30
0
 11
159000.000
 21
58994.995
 31
0
  0
Text
  8
0
 10
159000.000
 20
58992.493
 30
0
 40
12.51222
 50
0
  1
159000
 72
1
 11
159000.000
 21
58992.493
 31
0
 73
3
  0
LINE
  8
0
 62
7
 10
160000.000
 20
59000.000
 30
0
 11
160000.000
 21
58994.995
 31
0
  0
Text
  8
0
 10
160000.000
 20
58992.493
 30
0
 40
12.51222
 50
0
  1
160000
 72
1
 11
160000.000
 21
58992.493
 31
0
 73
3
  0
LINE
  8
0
 62
7
 10
161000.000
 20
59000.000
 30
0
 11
161000.000
 21
58994.995
 31
0
  0
Text
  8
0
 10
161000.000
 20
58992.493
 30
0
 40
12.51222
 50
0
  1
161000
 72
1
 11
161000.000
 21
58992.493
 31
0
 73
3
  0
LINE
  8
0
 62
7
 10
162000.000
 20
59000.000
 30
0
 11
162000.000
 21
58994.995
 31
0
  0
Text
  8
0
 10
162000.000
 20
58992.493
 30
0
 40
12.51222
 50
0
  1
162000
 72
1
 11
162000.000
 21
58992.493
 31
0
 73
3
  0
LINE
  8
0
 62
7
 10
154500.000
 20
59000.000
 30
0
 11
154500.000
 21
58996.872
 31
0
  0
LINE
  8
0
 62
7
 10
155500.000
 20
59000.000
 30
0
 11
155500.000
 21
58996.872
 31
0
  0
LINE
  8
0
 62
7
 10
156500.000
 20
59000.000
 30
0
 11
156500.000
 21
58996.872
 31
0
  0
LINE
  8
0
 62
7
 10
157500.000
 20
59000.000
 30
0
 11
157500.000
 21
58996.872
 31
0
  0
LINE
  8
0
 62
7
 10
158500.000
 20
59000.000
 30
0
 11
158500.000
 21
58996.872
 31
0
  0
LINE
  8
0
 62
7
 10
159500.000
 20
59000.000
 30
0
 11
159500.000
 21
58996.872
 31
0
  0
LINE
  8
0
 62
7
 10
160500.000
 20
59000.000
 30
0
 11
160500.000
 21
58996.872
 31
0
  0
LINE
  8
0
 62
7
 10
161500.000
 20
59000.000
 30
0
 11
161500.000
 21
58996.872
 31
0
  0
LINE
  8
0
 62
7
 10
154000.000
 20
59000.000
 30
0
 11
153994.995
 21
59000.000
 31
0
  0
Text
  8
0
 10
153989.990
 20
59000.000
 30
0
 40
12.51222
 50
0
  1
5900
 72
2
 11
153989.990
 21
59000.000
 31
0
 73
2
  0
LINE
  8
0
 62
7
 10
154000.000
 20
59200.000
 30
0
 11
153994.995
 21
59200.000
 31
0
  0
Text
  8
0
 10
153989.990
 20
59200.000
 30
0
 40
12.51222
 50
0
  1
5920
 72
2
 11
153989.990
 21
59200.000
 31
0
 73
2
  0
LINE
  8
0
 62
7
 10
154000.000
 20
59400.000
 30
0
 11
153994.995
 21
59400.000
 31
0
  0
Text
  8
0
 10
153989.990
 20
59400.000
 30
0
 40
12.51222
 50
0
  1
5940
 72
2
 11
153989.990
 21
59400.000
 31
0
 73
2
  0
LINE
  8
0
 62
7
 10
154000.000
 20
59600.000
 30
0
 11
153994.995
 21
59600.000
 31
0
  0
Text
  8
0
 10
153989.990
 20
59600.000
 30
0
 40
12.51222
 50
0
  1
5960
 72
2
 11
153989.990
 21
59600.000
 31
0
 73
2
  0
LINE
  8
0
 62
7
 10
154000.000
 20
59800.000
 30
0
 11
153994.995
 21
59800.000
 31
0
  0
Text
  8
0
 10
153989.990
 20
59800.000
 30
0
 40
12.51222
 50
0
  1
5980
 72
2
 11
153989.990
 21
59800.000
 31
0
 73
2
  0
LINE
  8
0
 62
7
 10
154000.000
 20
60000.000
 30
0
 11
153994.995
 21
60000.000
 31
0
  0
Text
  8
0
 10
153989.990
 20
60000.000
 30
0
 40
12.51222
 50
0
  1
6000
 72
2
 11
153989.990
 21
60000.000
 31
0
 73
2
  0
LINE
  8
0
 62
7
 10
154000.000
 20
59040.000
 30
0
 11
153996.872
 21
59040.000
 31
0
  0
LINE
  8
0
 62
7
 10
154000.000
 20
59080.000
 30
0
 11
153996.872
 21
59080.000
 31
0
  0
LINE
  8
0
 62
7
 10
154000.000
 20
59120.000
 30
0
 11
153996.872
 21
59120.000
 31
0
  0
LINE
  8
0
 62
7
 10
154000.000
 20
59160.000
 30
0
 11
153996.872
 21
59160.000
 31
0
  0
LINE
  8
0
 62
7
 10
154000.000
 20
59240.000
 30
0
 11
153996.872
 21
59240.000
 31
0
  0
LINE
  8
0
 62
7
 10
154000.000
 20
59280.000
 30
0
 11
153996.872
 21
59280.000
 31
0
  0
LINE
  8
0
 62
7
 10
154000.000
 20
59320.000
 30
0
 11
153996.872
 21
59320.000
 31
0
  0
LINE
  8
0
 62
7
 10
154000.000
 20
59360.000
 30
0
 11
153996.872
 21
59360.000
 31
0
  0
LINE
  8
0
 62
7
 10
154000.000
 20
59440.000
 30
0
 11
153996.872
 21
59440.000
 31
0
  0
LINE
  8
0
 62
7
 10
154000.000
 20
59480.000
 30
0
 11
153996.872
 21
59480.000
 31
0
  0
LINE
  8
0
 62
7
 10
154000.000
 20
59520.000
 30
0
 11
153996.872
 21
59520.000
 31
0
  0
LINE
  8
0
 62
7
 10
154000.000
 20
59560.000
 30
0
 11
153996.872
 21
59560.000
 31
0
  0
LINE
  8
0
 62
7
 10
154000.000
 20
59640.000
 30
0
 11
153996.872
 21
59640.000
 31
0
  0
LINE
  8
0
 62
7
 10
154000.000
 20
59680.000
 30
0
 11
153996.872
 21
59680.000
 31
0
  0
LINE
  8
0
 62
7
 10
154000.000
 20
59720.000
 30
0
 11
153996.872
 21
59720.000
 31
0
  0
LINE
  8
0
 62
7
 10
154000.000
 20
59760.000
 30
0
 11
153996.872
 21
59760.000
 31
0
  0
LINE
  8
0
 62
7
 10
154000.000
 20
59840.000
 30
0
 11
153996.872
 21
59840.000
 31
0
  0
LINE
  8
0
 62
7
 10
154000.000
 20
59880.000
 30
0
 11
153996.872
 21
59880.000
 31
0
  0
LINE
  8
0
 62
7
 10
154000.000
 20
59920.000
 30
0
 11
153996.872
 21
59920.000
 31
0
  0
LINE
  8
0
 62
7
 10
154000.000
 20
59960.000
 30
0
 11
153996.872
 21
59960.000
 31
0
  0
Text
  8
0
 10
158000.000
 20
60023.460
 30
0
 40
12.51222
 50
0
  1
Geom: Existing Cimarron Bijou 2002    Flow: Existing Flows
 72
1
 11
158000.000
 21
60023.460
 31
0
 73
3
  0
Text
  8
0
 10
158000.000
 20
60054.741
 30
0
 40
15.64027
 50
0
  1
Cimarron Bijou 2002       Plan: Plan 03    
 72
1
 11
158000.000
 21
60054.741
 31
0
 73
3
  0
Text
  8
0
 10
158000.000
 20
58947.556
 30
0
 40
12.51222
 50
0
  1
Main Channel Distance (ft)
 72
1
 11
158000.000
 21
58947.556
 31
0
 73
3
  0
Text
  8
0
 10
153924.927
 20
59500.000
 30
0
 40
12.51222
 50
90
  1
Elevation (ft)
 72
1
 11
153924.927
 21
59500.000
 31
0
 73
3
999
- - - Legend - - -
  0
Text
  8
0
 10
162093.842
 20
59993.744
 30
0
 40
12.51222
 50
0
  1
Legend
 72
1
 11
162093.842
 21
59993.744
 31
0
 73
3
  0
LINE
  8
0
 62
7
 10
162025.024
 20
59974.976
 30
0
 11
162162.659
 21
59974.976
 31
0
  0
LINE
  8
0
 62
4
 10
162025.024
 20
59956.207
 30
0
 11
162162.659
 21
59956.207
 31
0
  0
LINE
  8
0
 62
4
 10
162092.082
 20
59954.448
 30
0
 11
162095.601
 21
59957.967
 31
0
  0
LINE
  8
0
 62
4
 10
162092.082
 20
59957.967
 30
0
 11
162095.601
 21
59954.448
 31
0
  0
Text
  8
0
 10
162093.842
 20
59943.695
 30
0
 40
12.51222
 50
0
  1
WS  500-yr.
 72
1
 11
162093.842
 21
59943.695
 31
0
 73
3
  0
LINE
  8
0
 62
4
 10
162025.024
 20
59924.927
 30
0
 11
162162.659
 21
59924.927
 31
0
  0
Text
  8
0
 10
162093.842
 20
59912.414
 30
0
 40
12.51222
 50
0
  1
WS  100yr ex
 72
1
 11
162093.842
 21
59912.414
 31
0
 73
3
  0
LINE
  8
0
 62
4
 10
162025.024
 20
59893.646
 30
0
 11
162162.659
 21
59893.646
 31
0
  0
LINE
  8
0
 62
4
 10
162092.082
 20
59894.819
 30
0
 11
162095.601
 21
59894.819
 31
0
  0
LINE
  8
0
 62
4
 10
162093.842
 20
59891.300
 30
0
 11
162095.601
 21
59894.819
 31
0
  0
LINE
  8
0
 62
4
 10
162093.842
 20
59891.300
 30
0
 11
162092.082
 21
59894.819
 31
0
  0
Text
  8
0
 10
162093.842
 20
59881.134
 30
0
 40
12.51222
 50
0
  1
WS  50-yr ex
 72
1
 11
162093.842
 21
59881.134
 31
0
 73
3
  0
LINE
  8
0
 62
4
 10
162025.024
 20
59862.366
 30
0
 11
162162.659
 21
59862.366
 31
0
  0
LINE
  8
0
 62
4
 10
162092.082
 20
59861.193
 30
0
 11
162095.601
 21
59861.193
 31
0
  0
LINE
  8
0
 62
4
 10
162093.842
 20
59864.712
 30
0
 11
162095.601
 21
59861.193
 31
0
  0
LINE
  8
0
 62
4
 10
162093.842
 20
59864.712
 30
0
 11
162092.082
 21
59861.193
 31
0
  0
Text
  8
0
 10
162093.842
 20
59849.853
 30
0
 40
12.51222
 50
0
  1
WS  10-yr ex
 72
1
 11
162093.842
 21
59849.853
 31
0
 73
3
  0
LINE
  8
0
 62
7
 10
162025.024
 20
59831.085
 30
0
 11
162162.659
 21
59831.085
 31
0
  0
LINE
  8
0
 62
7
 10
162092.082
 20
59829.326
 30
0
 11
162092.082
 21
59832.845
 31
0
  0
LINE
  8
0
 62
7
 10
162092.082
 20
59832.845
 30
0
 11
162095.601
 21
59832.845
 31
0
  0
LINE
  8
0
 62
7
 10
162095.601
 20
59832.845
 30
0
 11
162095.601
 21
59829.326
 31
0
  0
LINE
  8
0
 62
7
 10
162095.601
 20
59829.326
 30
0
 11
162092.082
 21
59829.326
 31
0
  0
Text
  8
0
 10
162093.842
 20
59818.573
 30
0
 40
12.51222
 50
0
  1
Ground
 72
1
 11
162093.842
 21
59818.573
 31
0
 73
3
  0
LINE
  8
0
 62
7
 10
162012.512
 20
60000.000
 30
0
 11
162175.171
 21
60000.000
 31
0
  0
LINE
  8
0
 62
7
 10
162175.171
 20
60000.000
 30
0
 11
162175.171
 21
59799.804
 31
0
  0
LINE
  8
0
 62
7
 10
162012.512
 20
60000.000
 30
0
 11
162012.512
 21
59799.804
 31
0
  0
LINE
  8
0
 62
7
 10
162175.171
 20
59799.804
 30
0
 11
162012.512
 21
59799.804
 31
0
999
- - - Line Data - - -
999
- - - Line Data - - -
  0
LINE
  8
0
 62
7
 10
159557.000
 20
59625.698
 30
0
 11
159557.000
 21
59625.698
 31
0
  0
LINE
  8
0
 62
7
 10
159557.000
 20
59625.698
 30
0
 11
159642.000
 21
59621.802
 31
0
  0
LINE
  8
0
 62
7
 10
159642.000
 20
59621.802
 30
0
 11
159642.000
 21
59621.802
 31
0
  0
LINE
  8
0
 62
7
 10
159642.000
 20
59621.802
 30
0
 11
159557.000
 21
59625.698
 31
0
999
- - - Line Data - - -
  0
LINE
  8
0
 62
7
 10
159972.000
 20
59562.617
 30
0
 11
159972.000
 21
59580.000
 31
0
  0
LINE
  8
0
 62
7
 10
159972.000
 20
59580.000
 30
0
 11
160018.000
 21
59591.973
 31
0
  0
LINE
  8
0
 62
7
 10
160018.000
 20
59591.973
 30
0
 11
160018.000
 21
59561.909
 31
0
  0
LINE
  8
0
 62
7
 10
160018.000
 20
59561.909
 30
0
 11
159972.000
 21
59562.617
 31
0
999
- - - Line Data - - -
  0
LINE
  8
0
 62
7
 10
160100.000
 20
59826.401
 30
0
 11
160100.000
 21
59826.401
 31
0
  0
LINE
  8
0
 62
7
 10
160100.000
 20
59826.401
 30
0
 11
160205.000
 21
59826.401
 31
0
  0
LINE
  8
0
 62
7
 10
160205.000
 20
59826.401
 30
0
 11
160205.000
 21
59826.401
 31
0
  0
LINE
  8
0
 62
7
 10
160205.000
 20
59826.401
 30
0
 11
160100.000
 21
59826.401
 31
0
999
- - - Line Data - - -
  0
LINE
  8
0
 62
7
 10
161036.000
 20
59651.201
 30
0
 11
161036.000
 21
59651.201
 31
0
  0
LINE
  8
0
 62
7
 10
161036.000
 20
59651.201
 30
0
 11
161084.000
 21
59681.206
 31
0
  0
LINE
  8
0
 62
7
 10
161084.000
 20
59681.206
 30
0
 11
161084.000
 21
59655.947
 31
0
  0
LINE
  8
0
 62
7
 10
161084.000
 20
59655.947
 30
0
 11
161036.000
 21
59651.201
 31
0
999
- - - Line Data - - -
  0
LINE
  8
0
 62
7
 10
159557.000
 20
59420.000
 30
0
 11
159557.000
 21
59625.698
 31
0
  0
LINE
  8
0
 62
7
 10
159557.000
 20
59625.698
 30
0
 11
159642.000
 21
59621.802
 31
0
  0
LINE
  8
0
 62
7
 10
159642.000
 20
59621.802
 30
0
 11
159642.000
 21
59420.000
 31
0
999
- - - Line Data - - -
  0
LINE
  8
0
 62
7
 10
159972.000
 20
59460.000
 30
0
 11
159972.000
 21
59580.000
 31
0
  0
LINE
  8
0
 62
7
 10
159972.000
 20
59580.000
 30
0
 11
160018.000
 21
59591.973
 31
0
  0
LINE
  8
0
 62
7
 10
160018.000
 20
59591.973
 30
0
 11
160018.000
 21
59460.000
 31
0
999
- - - Line Data - - -
  0
LINE
  8
0
 62
7
 10
160100.000
 20
59462.500
 30
0
 11
160100.000
 21
59826.401
 31
0
  0
LINE
  8
0
 62
7
 10
160100.000
 20
59826.401
 30
0
 11
160205.000
 21
59826.401
 31
0
  0
LINE
  8
0
 62
7
 10
160205.000
 20
59826.401
 30
0
 11
160205.000
 21
59467.500
 31
0
999
- - - Line Data - - -
  0
LINE
  8
0
 62
7
 10
161036.000
 20
59532.998
 30
0
 11
161012.211
 21
59532.256
 31
0
  0
LINE
  8
0
 62
7
 10
161012.211
 20
59532.256
 30
0
 11
161036.000
 21
59651.201
 31
0
  0
LINE
  8
0
 62
7
 10
161036.000
 20
59651.201
 30
0
 11
161084.000
 21
59681.206
 31
0
  0
LINE
  8
0
 62
7
 10
161084.000
 20
59681.206
 30
0
 11
161110.000
 21
59551.206
 31
0
  0
LINE
  8
0
 62
7
 10
161110.000
 20
59551.206
 30
0
 11
161110.000
 21
59540.000
 31
0
  0
LINE
  8
0
 62
7
 10
161110.000
 20
59540.000
 30
0
 11
161084.000
 21
59537.998
 31
0
999
- - - Line Data - - -
  0
LINE
  8
0
 62
7
 10
154640.000
 20
59076.001
 30
0
 11
155590.000
 21
59125.000
 31
0
  0
LINE
  8
0
 62
7
 10
155590.000
 20
59125.000
 30
0
 11
156940.000
 21
59159.502
 31
0
  0
LINE
  8
0
 62
7
 10
156940.000
 20
59159.502
 30
0
 11
157355.000
 21
59173.301
 31
0
999
- - - Symbol Data - - -
  0
LINE
  8
0
 62
7
 10
154638.240
 20
59074.241
 30
0
 11
154638.240
 21
59077.761
 31
0
  0
LINE
  8
0
 62
7
 10
154638.240
 20
59077.761
 30
0
 11
154641.760
 21
59077.761
 31
0
  0
LINE
  8
0
 62
7
 10
154641.760
 20
59077.761
 30
0
 11
154641.760
 21
59074.241
 31
0
  0
LINE
  8
0
 62
7
 10
154641.760
 20
59074.241
 30
0
 11
154638.240
 21
59074.241
 31
0
  0
LINE
  8
0
 62
7
 10
155588.240
 20
59123.240
 30
0
 11
155588.240
 21
59126.760
 31
0
  0
LINE
  8
0
 62
7
 10
155588.240
 20
59126.760
 30
0
 11
155591.760
 21
59126.760
 31
0
  0
LINE
  8
0
 62
7
 10
155591.760
 20
59126.760
 30
0
 11
155591.760
 21
59123.240
 31
0
  0
LINE
  8
0
 62
7
 10
155591.760
 20
59123.240
 30
0
 11
155588.240
 21
59123.240
 31
0
  0
LINE
  8
0
 62
7
 10
156938.240
 20
59157.742
 30
0
 11
156938.240
 21
59161.261
 31
0
  0
LINE
  8
0
 62
7
 10
156938.240
 20
59161.261
 30
0
 11
156941.760
 21
59161.261
 31
0
  0
LINE
  8
0
 62
7
 10
156941.760
 20
59161.261
 30
0
 11
156941.760
 21
59157.742
 31
0
  0
LINE
  8
0
 62
7
 10
156941.760
 20
59157.742
 30
0
 11
156938.240
 21
59157.742
 31
0
  0
LINE
  8
0
 62
7
 10
157353.240
 20
59171.541
 30
0
 11
157353.240
 21
59175.060
 31
0
  0
LINE
  8
0
 62
7
 10
157353.240
 20
59175.060
 30
0
 11
157356.760
 21
59175.060
 31
0
  0
LINE
  8
0
 62
7
 10
157356.760
 20
59175.060
 30
0
 11
157356.760
 21
59171.541
 31
0
  0
LINE
  8
0
 62
7
 10
157356.760
 20
59171.541
 30
0
 11
157353.240
 21
59171.541
 31
0
999
- - - Line Data - - -
  0
LINE
  8
0
 62
7
 10
157355.000
 20
59173.301
 30
0
 11
158445.000
 21
59295.098
 31
0
  0
LINE
  8
0
 62
7
 10
158445.000
 20
59295.098
 30
0
 11
159535.000
 21
59350.000
 31
0
  0
LINE
  8
0
 62
7
 10
159535.000
 20
59350.000
 30
0
 11
159555.000
 21
59420.000
 31
0
  0
LINE
  8
0
 62
7
 10
159555.000
 20
59420.000
 30
0
 11
159557.000
 21
59420.000
 31
0
  0
LINE
  8
0
 62
7
 10
159557.000
 20
59420.000
 30
0
 11
159642.000
 21
59420.000
 31
0
  0
LINE
  8
0
 62
7
 10
159642.000
 20
59420.000
 30
0
 11
159645.000
 21
59420.000
 31
0
999
- - - Symbol Data - - -
  0
LINE
  8
0
 62
7
 10
157353.240
 20
59171.541
 30
0
 11
157353.240
 21
59175.060
 31
0
  0
LINE
  8
0
 62
7
 10
157353.240
 20
59175.060
 30
0
 11
157356.760
 21
59175.060
 31
0
  0
LINE
  8
0
 62
7
 10
157356.760
 20
59175.060
 30
0
 11
157356.760
 21
59171.541
 31
0
  0
LINE
  8
0
 62
7
 10
157356.760
 20
59171.541
 30
0
 11
157353.240
 21
59171.541
 31
0
  0
LINE
  8
0
 62
7
 10
158443.240
 20
59293.338
 30
0
 11
158443.240
 21
59296.857
 31
0
  0
LINE
  8
0
 62
7
 10
158443.240
 20
59296.857
 30
0
 11
158446.760
 21
59296.857
 31
0
  0
LINE
  8
0
 62
7
 10
158446.760
 20
59296.857
 30
0
 11
158446.760
 21
59293.338
 31
0
  0
LINE
  8
0
 62
7
 10
158446.760
 20
59293.338
 30
0
 11
158443.240
 21
59293.338
 31
0
  0
LINE
  8
0
 62
7
 10
159533.240
 20
59348.240
 30
0
 11
159533.240
 21
59351.760
 31
0
  0
LINE
  8
0
 62
7
 10
159533.240
 20
59351.760
 30
0
 11
159536.760
 21
59351.760
 31
0
  0
LINE
  8
0
 62
7
 10
159536.760
 20
59351.760
 30
0
 11
159536.760
 21
59348.240
 31
0
  0
LINE
  8
0
 62
7
 10
159536.760
 20
59348.240
 30
0
 11
159533.240
 21
59348.240
 31
0
  0
LINE
  8
0
 62
7
 10
159553.240
 20
59418.240
 30
0
 11
159553.240
 21
59421.760
 31
0
  0
LINE
  8
0
 62
7
 10
159553.240
 20
59421.760
 30
0
 11
159556.760
 21
59421.760
 31
0
  0
LINE
  8
0
 62
7
 10
159556.760
 20
59421.760
 30
0
 11
159556.760
 21
59418.240
 31
0
  0
LINE
  8
0
 62
7
 10
159556.760
 20
59418.240
 30
0
 11
159553.240
 21
59418.240
 31
0
  0
LINE
  8
0
 62
7
 10
159555.240
 20
59418.240
 30
0
 11
159555.240
 21
59421.760
 31
0
  0
LINE
  8
0
 62
7
 10
159555.240
 20
59421.760
 30
0
 11
159558.760
 21
59421.760
 31
0
  0
LINE
  8
0
 62
7
 10
159558.760
 20
59421.760
 30
0
 11
159558.760
 21
59418.240
 31
0
  0
LINE
  8
0
 62
7
 10
159558.760
 20
59418.240
 30
0
 11
159555.240
 21
59418.240
 31
0
  0
LINE
  8
0
 62
7
 10
159640.240
 20
59418.240
 30
0
 11
159640.240
 21
59421.760
 31
0
  0
LINE
  8
0
 62
7
 10
159640.240
 20
59421.760
 30
0
 11
159643.760
 21
59421.760
 31
0
  0
LINE
  8
0
 62
7
 10
159643.760
 20
59421.760
 30
0
 11
159643.760
 21
59418.240
 31
0
  0
LINE
  8
0
 62
7
 10
159643.760
 20
59418.240
 30
0
 11
159640.240
 21
59418.240
 31
0
  0
LINE
  8
0
 62
7
 10
159643.240
 20
59418.240
 30
0
 11
159643.240
 21
59421.760
 31
0
  0
LINE
  8
0
 62
7
 10
159643.240
 20
59421.760
 30
0
 11
159646.760
 21
59421.760
 31
0
  0
LINE
  8
0
 62
7
 10
159646.760
 20
59421.760
 30
0
 11
159646.760
 21
59418.240
 31
0
  0
LINE
  8
0
 62
7
 10
159646.760
 20
59418.240
 30
0
 11
159643.240
 21
59418.240
 31
0
999
- - - Line Data - - -
  0
LINE
  8
0
 62
7
 10
159645.000
 20
59420.000
 30
0
 11
159965.000
 21
59430.000
 31
0
  0
LINE
  8
0
 62
7
 10
159965.000
 20
59430.000
 30
0
 11
159970.000
 21
59460.000
 31
0
  0
LINE
  8
0
 62
7
 10
159970.000
 20
59460.000
 30
0
 11
159972.000
 21
59460.000
 31
0
  0
LINE
  8
0
 62
7
 10
159972.000
 20
59460.000
 30
0
 11
160018.000
 21
59460.000
 31
0
  0
LINE
  8
0
 62
7
 10
160018.000
 20
59460.000
 30
0
 11
160020.000
 21
59460.000
 31
0
  0
LINE
  8
0
 62
7
 10
160020.000
 20
59460.000
 30
0
 11
160025.000
 21
59462.500
 31
0
  0
LINE
  8
0
 62
7
 10
160025.000
 20
59462.500
 30
0
 11
160100.000
 21
59462.500
 31
0
  0
LINE
  8
0
 62
7
 10
160100.000
 20
59462.500
 30
0
 11
160205.000
 21
59467.500
 31
0
  0
LINE
  8
0
 62
7
 10
160205.000
 20
59467.500
 30
0
 11
160265.000
 21
59467.500
 31
0
  0
LINE
  8
0
 62
7
 10
160265.000
 20
59467.500
 30
0
 11
160490.000
 21
59477.100
 31
0
  0
LINE
  8
0
 62
7
 10
160490.000
 20
59477.100
 30
0
 11
160940.000
 21
59530.000
 31
0
  0
LINE
  8
0
 62
7
 10
160940.000
 20
59530.000
 30
0
 11
161036.000
 21
59532.998
 31
0
  0
LINE
  8
0
 62
7
 10
161036.000
 20
59532.998
 30
0
 11
161084.000
 21
59537.998
 31
0
  0
LINE
  8
0
 62
7
 10
161084.000
 20
59537.998
 30
0
 11
161110.000
 21
59540.000
 31
0
  0
LINE
  8
0
 62
7
 10
161110.000
 20
59540.000
 30
0
 11
161460.000
 21
59565.000
 31
0
999
- - - Symbol Data - - -
  0
LINE
  8
0
 62
7
 10
159643.240
 20
59418.240
 30
0
 11
159643.240
 21
59421.760
 31
0
  0
LINE
  8
0
 62
7
 10
159643.240
 20
59421.760
 30
0
 11
159646.760
 21
59421.760
 31
0
  0
LINE
  8
0
 62
7
 10
159646.760
 20
59421.760
 30
0
 11
159646.760
 21
59418.240
 31
0
  0
LINE
  8
0
 62
7
 10
159646.760
 20
59418.240
 30
0
 11
159643.240
 21
59418.240
 31
0
  0
LINE
  8
0
 62
7
 10
159963.240
 20
59428.240
 30
0
 11
159963.240
 21
59431.760
 31
0
  0
LINE
  8
0
 62
7
 10
159963.240
 20
59431.760
 30
0
 11
159966.760
 21
59431.760
 31
0
  0
LINE
  8
0
 62
7
 10
159966.760
 20
59431.760
 30
0
 11
159966.760
 21
59428.240
 31
0
  0
LINE
  8
0
 62
7
 10
159966.760
 20
59428.240
 30
0
 11
159963.240
 21
59428.240
 31
0
  0
LINE
  8
0
 62
7
 10
159968.240
 20
59458.240
 30
0
 11
159968.240
 21
59461.760
 31
0
  0
LINE
  8
0
 62
7
 10
159968.240
 20
59461.760
 30
0
 11
159971.760
 21
59461.760
 31
0
  0
LINE
  8
0
 62
7
 10
159971.760
 20
59461.760
 30
0
 11
159971.760
 21
59458.240
 31
0
  0
LINE
  8
0
 62
7
 10
159971.760
 20
59458.240
 30
0
 11
159968.240
 21
59458.240
 31
0
  0
LINE
  8
0
 62
7
 10
159970.240
 20
59458.240
 30
0
 11
159970.240
 21
59461.760
 31
0
  0
LINE
  8
0
 62
7
 10
159970.240
 20
59461.760
 30
0
 11
159973.760
 21
59461.760
 31
0
  0
LINE
  8
0
 62
7
 10
159973.760
 20
59461.760
 30
0
 11
159973.760
 21
59458.240
 31
0
  0
LINE
  8
0
 62
7
 10
159973.760
 20
59458.240
 30
0
 11
159970.240
 21
59458.240
 31
0
  0
LINE
  8
0
 62
7
 10
160016.240
 20
59458.240
 30
0
 11
160016.240
 21
59461.760
 31
0
  0
LINE
  8
0
 62
7
 10
160016.240
 20
59461.760
 30
0
 11
160019.760
 21
59461.760
 31
0
  0
LINE
  8
0
 62
7
 10
160019.760
 20
59461.760
 30
0
 11
160019.760
 21
59458.240
 31
0
  0
LINE
  8
0
 62
7
 10
160019.760
 20
59458.240
 30
0
 11
160016.240
 21
59458.240
 31
0
  0
LINE
  8
0
 62
7
 10
160018.240
 20
59458.240
 30
0
 11
160018.240
 21
59461.760
 31
0
  0
LINE
  8
0
 62
7
 10
160018.240
 20
59461.760
 30
0
 11
160021.760
 21
59461.760
 31
0
  0
LINE
  8
0
 62
7
 10
160021.760
 20
59461.760
 30
0
 11
160021.760
 21
59458.240
 31
0
  0
LINE
  8
0
 62
7
 10
160021.760
 20
59458.240
 30
0
 11
160018.240
 21
59458.240
 31
0
  0
LINE
  8
0
 62
7
 10
160023.240
 20
59460.740
 30
0
 11
160023.240
 21
59464.260
 31
0
  0
LINE
  8
0
 62
7
 10
160023.240
 20
59464.260
 30
0
 11
160026.760
 21
59464.260
 31
0
  0
LINE
  8
0
 62
7
 10
160026.760
 20
59464.260
 30
0
 11
160026.760
 21
59460.740
 31
0
  0
LINE
  8
0
 62
7
 10
160026.760
 20
59460.740
 30
0
 11
160023.240
 21
59460.740
 31
0
  0
LINE
  8
0
 62
7
 10
160098.240
 20
59460.740
 30
0
 11
160098.240
 21
59464.260
 31
0
  0
LINE
  8
0
 62
7
 10
160098.240
 20
59464.260
 30
0
 11
160101.760
 21
59464.260
 31
0
  0
LINE
  8
0
 62
7
 10
160101.760
 20
59464.260
 30
0
 11
160101.760
 21
59460.740
 31
0
  0
LINE
  8
0
 62
7
 10
160101.760
 20
59460.740
 30
0
 11
160098.240
 21
59460.740
 31
0
  0
LINE
  8
0
 62
7
 10
160203.240
 20
59465.740
 30
0
 11
160203.240
 21
59469.260
 31
0
  0
LINE
  8
0
 62
7
 10
160203.240
 20
59469.260
 30
0
 11
160206.760
 21
59469.260
 31
0
  0
LINE
  8
0
 62
7
 10
160206.760
 20
59469.260
 30
0
 11
160206.760
 21
59465.740
 31
0
  0
LINE
  8
0
 62
7
 10
160206.760
 20
59465.740
 30
0
 11
160203.240
 21
59465.740
 31
0
  0
LINE
  8
0
 62
7
 10
160263.240
 20
59465.740
 30
0
 11
160263.240
 21
59469.260
 31
0
  0
LINE
  8
0
 62
7
 10
160263.240
 20
59469.260
 30
0
 11
160266.760
 21
59469.260
 31
0
  0
LINE
  8
0
 62
7
 10
160266.760
 20
59469.260
 30
0
 11
160266.760
 21
59465.740
 31
0
  0
LINE
  8
0
 62
7
 10
160266.760
 20
59465.740
 30
0
 11
160263.240
 21
59465.740
 31
0
  0
LINE
  8
0
 62
7
 10
160488.240
 20
59475.340
 30
0
 11
160488.240
 21
59478.859
 31
0
  0
LINE
  8
0
 62
7
 10
160488.240
 20
59478.859
 30
0
 11
160491.760
 21
59478.859
 31
0
  0
LINE
  8
0
 62
7
 10
160491.760
 20
59478.859
 30
0
 11
160491.760
 21
59475.340
 31
0
  0
LINE
  8
0
 62
7
 10
160491.760
 20
59475.340
 30
0
 11
160488.240
 21
59475.340
 31
0
  0
LINE
  8
0
 62
7
 10
160938.240
 20
59528.240
 30
0
 11
160938.240
 21
59531.760
 31
0
  0
LINE
  8
0
 62
7
 10
160938.240
 20
59531.760
 30
0
 11
160941.760
 21
59531.760
 31
0
  0
LINE
  8
0
 62
7
 10
160941.760
 20
59531.760
 30
0
 11
160941.760
 21
59528.240
 31
0
  0
LINE
  8
0
 62
7
 10
160941.760
 20
59528.240
 30
0
 11
160938.240
 21
59528.240
 31
0
  0
LINE
  8
0
 62
7
 10
161034.240
 20
59531.239
 30
0
 11
161034.240
 21
59534.758
 31
0
  0
LINE
  8
0
 62
7
 10
161034.240
 20
59534.758
 30
0
 11
161037.760
 21
59534.758
 31
0
  0
LINE
  8
0
 62
7
 10
161037.760
 20
59534.758
 30
0
 11
161037.760
 21
59531.239
 31
0
  0
LINE
  8
0
 62
7
 10
161037.760
 20
59531.239
 30
0
 11
161034.240
 21
59531.239
 31
0
  0
LINE
  8
0
 62
7
 10
161082.240
 20
59536.239
 30
0
 11
161082.240
 21
59539.758
 31
0
  0
LINE
  8
0
 62
7
 10
161082.240
 20
59539.758
 30
0
 11
161085.760
 21
59539.758
 31
0
  0
LINE
  8
0
 62
7
 10
161085.760
 20
59539.758
 30
0
 11
161085.760
 21
59536.239
 31
0
  0
LINE
  8
0
 62
7
 10
161085.760
 20
59536.239
 30
0
 11
161082.240
 21
59536.239
 31
0
  0
LINE
  8
0
 62
7
 10
161108.240
 20
59538.240
 30
0
 11
161108.240
 21
59541.760
 31
0
  0
LINE
  8
0
 62
7
 10
161108.240
 20
59541.760
 30
0
 11
161111.760
 21
59541.760
 31
0
  0
LINE
  8
0
 62
7
 10
161111.760
 20
59541.760
 30
0
 11
161111.760
 21
59538.240
 31
0
  0
LINE
  8
0
 62
7
 10
161111.760
 20
59538.240
 30
0
 11
161108.240
 21
59538.240
 31
0
  0
LINE
  8
0
 62
7
 10
161458.240
 20
59563.240
 30
0
 11
161458.240
 21
59566.760
 31
0
  0
LINE
  8
0
 62
7
 10
161458.240
 20
59566.760
 30
0
 11
161461.760
 21
59566.760
 31
0
  0
LINE
  8
0
 62
7
 10
161461.760
 20
59566.760
 30
0
 11
161461.760
 21
59563.240
 31
0
  0
LINE
  8
0
 62
7
 10
161461.760
 20
59563.240
 30
0
 11
161458.240
 21
59563.240
 31
0
999
- - - Line Data - - -
  0
LINE
  8
0
 62
4
 10
154640.000
 20
59210.161
 30
0
 11
155590.000
 21
59263.511
 31
0
  0
LINE
  8
0
 62
4
 10
155590.000
 20
59263.511
 30
0
 11
156940.000
 21
59360.039
 31
0
  0
LINE
  8
0
 62
4
 10
156940.000
 20
59360.039
 30
0
 11
157355.000
 21
59377.070
 31
0
999
- - - Line Data - - -
  0
LINE
  8
0
 62
4
 10
157355.000
 20
59377.070
 30
0
 11
158445.000
 21
59469.556
 31
0
  0
LINE
  8
0
 62
4
 10
158445.000
 20
59469.556
 30
0
 11
159535.000
 21
59542.495
 31
0
  0
LINE
  8
0
 62
4
 10
159535.000
 20
59542.495
 30
0
 11
159555.000
 21
59527.676
 31
0
  0
LINE
  8
0
 62
4
 10
159555.000
 20
59527.676
 30
0
 11
159557.000
 21
59530.430
 31
0
  0
LINE
  8
0
 62
4
 10
159557.000
 20
59530.430
 30
0
 11
159642.000
 21
59556.143
 31
0
  0
LINE
  8
0
 62
4
 10
159642.000
 20
59556.143
 30
0
 11
159645.000
 21
59567.090
 31
0
999
- - - Line Data - - -
  0
LINE
  8
0
 62
4
 10
159645.000
 20
59567.090
 30
0
 11
159965.000
 21
59603.027
 31
0
  0
LINE
  8
0
 62
4
 10
159965.000
 20
59603.027
 30
0
 11
159970.000
 21
59603.052
 31
0
  0
LINE
  8
0
 62
4
 10
159970.000
 20
59603.052
 30
0
 11
159972.000
 21
59623.506
 31
0
  0
LINE
  8
0
 62
4
 10
159972.000
 20
59623.506
 30
0
 11
160018.000
 21
59634.976
 31
0
  0
LINE
  8
0
 62
4
 10
160018.000
 20
59634.976
 30
0
 11
160020.000
 21
59631.157
 31
0
  0
LINE
  8
0
 62
4
 10
160020.000
 20
59631.157
 30
0
 11
160025.000
 21
59629.595
 31
0
  0
LINE
  8
0
 62
4
 10
160025.000
 20
59629.595
 30
0
 11
160100.000
 21
59642.222
 31
0
  0
LINE
  8
0
 62
4
 10
160100.000
 20
59642.222
 30
0
 11
160205.000
 21
59653.511
 31
0
  0
LINE
  8
0
 62
4
 10
160205.000
 20
59653.511
 30
0
 11
160265.000
 21
59663.999
 31
0
  0
LINE
  8
0
 62
4
 10
160265.000
 20
59663.999
 30
0
 11
160490.000
 21
59670.894
 31
0
  0
LINE
  8
0
 62
4
 10
160490.000
 20
59670.894
 30
0
 11
160940.000
 21
59673.179
 31
0
  0
LINE
  8
0
 62
4
 10
160940.000
 20
59673.179
 30
0
 11
161036.000
 21
59668.145
 31
0
  0
LINE
  8
0
 62
4
 10
161036.000
 20
59668.145
 30
0
 11
161084.000
 21
59724.756
 31
0
  0
LINE
  8
0
 62
4
 10
161084.000
 20
59724.756
 30
0
 11
161110.000
 21
59741.001
 31
0
  0
LINE
  8
0
 62
4
 10
161110.000
 20
59741.001
 30
0
 11
161460.000
 21
59760.044
 31
0
999
- - - Line Data - - -
  0
LINE
  8
0
 62
4
 10
154640.000
 20
59145.527
 30
0
 11
155590.000
 21
59195.503
 31
0
  0
LINE
  8
0
 62
4
 10
155590.000
 20
59195.503
 30
0
 11
156940.000
 21
59270.308
 31
0
  0
LINE
  8
0
 62
4
 10
156940.000
 20
59270.308
 30
0
 11
157355.000
 21
59299.937
 31
0
999
- - - Symbol Data - - -
  0
LINE
  8
0
 62
4
 10
154638.240
 20
59144.354
 30
0
 11
154641.760
 21
59144.354
 31
0
  0
LINE
  8
0
 62
4
 10
154640.000
 20
59147.873
 30
0
 11
154641.760
 21
59144.354
 31
0
  0
LINE
  8
0
 62
4
 10
154640.000
 20
59147.873
 30
0
 11
154638.240
 21
59144.354
 31
0
  0
LINE
  8
0
 62
4
 10
155588.240
 20
59194.330
 30
0
 11
155591.760
 21
59194.330
 31
0
  0
LINE
  8
0
 62
4
 10
155590.000
 20
59197.849
 30
0
 11
155591.760
 21
59194.330
 31
0
  0
LINE
  8
0
 62
4
 10
155590.000
 20
59197.849
 30
0
 11
155588.240
 21
59194.330
 31
0
  0
LINE
  8
0
 62
4
 10
156938.240
 20
59269.135
 30
0
 11
156941.760
 21
59269.135
 31
0
  0
LINE
  8
0
 62
4
 10
156940.000
 20
59272.654
 30
0
 11
156941.760
 21
59269.135
 31
0
  0
LINE
  8
0
 62
4
 10
156940.000
 20
59272.654
 30
0
 11
156938.240
 21
59269.135
 31
0
  0
LINE
  8
0
 62
4
 10
157353.240
 20
59298.764
 30
0
 11
157356.760
 21
59298.764
 31
0
  0
LINE
  8
0
 62
4
 10
157355.000
 20
59302.283
 30
0
 11
157356.760
 21
59298.764
 31
0
  0
LINE
  8
0
 62
4
 10
157355.000
 20
59302.283
 30
0
 11
157353.240
 21
59298.764
 31
0
999
- - - Line Data - - -
  0
LINE
  8
0
 62
4
 10
157355.000
 20
59299.937
 30
0
 11
158445.000
 21
59379.434
 31
0
  0
LINE
  8
0
 62
4
 10
158445.000
 20
59379.434
 30
0
 11
159535.000
 21
59443.779
 31
0
  0
LINE
  8
0
 62
4
 10
159535.000
 20
59443.779
 30
0
 11
159555.000
 21
59465.410
 31
0
  0
LINE
  8
0
 62
4
 10
159555.000
 20
59465.410
 30
0
 11
159557.000
 21
59466.611
 31
0
  0
LINE
  8
0
 62
4
 10
159557.000
 20
59466.611
 30
0
 11
159642.000
 21
59486.689
 31
0
  0
LINE
  8
0
 62
4
 10
159642.000
 20
59486.689
 30
0
 11
159645.000
 21
59489.146
 31
0
999
- - - Symbol Data - - -
  0
LINE
  8
0
 62
4
 10
157353.240
 20
59298.764
 30
0
 11
157356.760
 21
59298.764
 31
0
  0
LINE
  8
0
 62
4
 10
157355.000
 20
59302.283
 30
0
 11
157356.760
 21
59298.764
 31
0
  0
LINE
  8
0
 62
4
 10
157355.000
 20
59302.283
 30
0
 11
157353.240
 21
59298.764
 31
0
  0
LINE
  8
0
 62
4
 10
158443.240
 20
59378.261
 30
0
 11
158446.760
 21
59378.261
 31
0
  0
LINE
  8
0
 62
4
 10
158445.000
 20
59381.780
 30
0
 11
158446.760
 21
59378.261
 31
0
  0
LINE
  8
0
 62
4
 10
158445.000
 20
59381.780
 30
0
 11
158443.240
 21
59378.261
 31
0
  0
LINE
  8
0
 62
4
 10
159533.240
 20
59442.606
 30
0
 11
159536.760
 21
59442.606
 31
0
  0
LINE
  8
0
 62
4
 10
159535.000
 20
59446.125
 30
0
 11
159536.760
 21
59442.606
 31
0
  0
LINE
  8
0
 62
4
 10
159535.000
 20
59446.125
 30
0
 11
159533.240
 21
59442.606
 31
0
  0
LINE
  8
0
 62
4
 10
159553.240
 20
59464.237
 30
0
 11
159556.760
 21
59464.237
 31
0
  0
LINE
  8
0
 62
4
 10
159555.000
 20
59467.756
 30
0
 11
159556.760
 21
59464.237
 31
0
  0
LINE
  8
0
 62
4
 10
159555.000
 20
59467.756
 30
0
 11
159553.240
 21
59464.237
 31
0
  0
LINE
  8
0
 62
4
 10
159555.240
 20
59465.438
 30
0
 11
159558.760
 21
59465.438
 31
0
  0
LINE
  8
0
 62
4
 10
159557.000
 20
59468.957
 30
0
 11
159558.760
 21
59465.438
 31
0
  0
LINE
  8
0
 62
4
 10
159557.000
 20
59468.957
 30
0
 11
159555.240
 21
59465.438
 31
0
  0
LINE
  8
0
 62
4
 10
159640.240
 20
59485.516
 30
0
 11
159643.760
 21
59485.516
 31
0
  0
LINE
  8
0
 62
4
 10
159642.000
 20
59489.035
 30
0
 11
159643.760
 21
59485.516
 31
0
  0
LINE
  8
0
 62
4
 10
159642.000
 20
59489.035
 30
0
 11
159640.240
 21
59485.516
 31
0
  0
LINE
  8
0
 62
4
 10
159643.240
 20
59487.972
 30
0
 11
159646.760
 21
59487.972
 31
0
  0
LINE
  8
0
 62
4
 10
159645.000
 20
59491.492
 30
0
 11
159646.760
 21
59487.972
 31
0
  0
LINE
  8
0
 62
4
 10
159645.000
 20
59491.492
 30
0
 11
159643.240
 21
59487.972
 31
0
999
- - - Line Data - - -
  0
LINE
  8
0
 62
4
 10
159645.000
 20
59489.146
 30
0
 11
159965.000
 21
59499.111
 31
0
  0
LINE
  8
0
 62
4
 10
159965.000
 20
59499.111
 30
0
 11
159970.000
 21
59514.502
 31
0
  0
LINE
  8
0
 62
4
 10
159970.000
 20
59514.502
 30
0
 11
159972.000
 21
59518.027
 31
0
  0
LINE
  8
0
 62
4
 10
159972.000
 20
59518.027
 30
0
 11
160018.000
 21
59532.134
 31
0
  0
LINE
  8
0
 62
4
 10
160018.000
 20
59532.134
 30
0
 11
160020.000
 21
59540.317
 31
0
  0
LINE
  8
0
 62
4
 10
160020.000
 20
59540.317
 30
0
 11
160025.000
 21
59540.122
 31
0
  0
LINE
  8
0
 62
4
 10
160025.000
 20
59540.122
 30
0
 11
160100.000
 21
59542.134
 31
0
  0
LINE
  8
0
 62
4
 10
160100.000
 20
59542.134
 30
0
 11
160205.000
 21
59541.484
 31
0
  0
LINE
  8
0
 62
4
 10
160205.000
 20
59541.484
 30
0
 11
160265.000
 21
59561.484
 31
0
  0
LINE
  8
0
 62
4
 10
160265.000
 20
59561.484
 30
0
 11
160490.000
 21
59569.204
 31
0
  0
LINE
  8
0
 62
4
 10
160490.000
 20
59569.204
 30
0
 11
160940.000
 21
59609.136
 31
0
  0
LINE
  8
0
 62
4
 10
160940.000
 20
59609.136
 30
0
 11
161036.000
 21
59613.926
 31
0
  0
LINE
  8
0
 62
4
 10
161036.000
 20
59613.926
 30
0
 11
161084.000
 21
59618.838
 31
0
  0
LINE
  8
0
 62
4
 10
161084.000
 20
59618.838
 30
0
 11
161110.000
 21
59634.746
 31
0
  0
LINE
  8
0
 62
4
 10
161110.000
 20
59634.746
 30
0
 11
161460.000
 21
59668.096
 31
0
999
- - - Symbol Data - - -
  0
LINE
  8
0
 62
4
 10
159643.240
 20
59487.972
 30
0
 11
159646.760
 21
59487.972
 31
0
  0
LINE
  8
0
 62
4
 10
159645.000
 20
59491.492
 30
0
 11
159646.760
 21
59487.972
 31
0
  0
LINE
  8
0
 62
4
 10
159645.000
 20
59491.492
 30
0
 11
159643.240
 21
59487.972
 31
0
  0
LINE
  8
0
 62
4
 10
159963.240
 20
59497.938
 30
0
 11
159966.760
 21
59497.938
 31
0
  0
LINE
  8
0
 62
4
 10
159965.000
 20
59501.457
 30
0
 11
159966.760
 21
59497.938
 31
0
  0
LINE
  8
0
 62
4
 10
159965.000
 20
59501.457
 30
0
 11
159963.240
 21
59497.938
 31
0
  0
LINE
  8
0
 62
4
 10
159968.240
 20
59513.329
 30
0
 11
159971.760
 21
59513.329
 31
0
  0
LINE
  8
0
 62
4
 10
159970.000
 20
59516.848
 30
0
 11
159971.760
 21
59513.329
 31
0
  0
LINE
  8
0
 62
4
 10
159970.000
 20
59516.848
 30
0
 11
159968.240
 21
59513.329
 31
0
  0
LINE
  8
0
 62
4
 10
159970.240
 20
59516.854
 30
0
 11
159973.760
 21
59516.854
 31
0
  0
LINE
  8
0
 62
4
 10
159972.000
 20
59520.373
 30
0
 11
159973.760
 21
59516.854
 31
0
  0
LINE
  8
0
 62
4
 10
159972.000
 20
59520.373
 30
0
 11
159970.240
 21
59516.854
 31
0
  0
LINE
  8
0
 62
4
 10
160016.240
 20
59530.961
 30
0
 11
160019.760
 21
59530.961
 31
0
  0
LINE
  8
0
 62
4
 10
160018.000
 20
59534.480
 30
0
 11
160019.760
 21
59530.961
 31
0
  0
LINE
  8
0
 62
4
 10
160018.000
 20
59534.480
 30
0
 11
160016.240
 21
59530.961
 31
0
  0
LINE
  8
0
 62
4
 10
160018.240
 20
59539.144
 30
0
 11
160021.760
 21
59539.144
 31
0
  0
LINE
  8
0
 62
4
 10
160020.000
 20
59542.663
 30
0
 11
160021.760
 21
59539.144
 31
0
  0
LINE
  8
0
 62
4
 10
160020.000
 20
59542.663
 30
0
 11
160018.240
 21
59539.144
 31
0
  0
LINE
  8
0
 62
4
 10
160023.240
 20
59538.949
 30
0
 11
160026.760
 21
59538.949
 31
0
  0
LINE
  8
0
 62
4
 10
160025.000
 20
59542.468
 30
0
 11
160026.760
 21
59538.949
 31
0
  0
LINE
  8
0
 62
4
 10
160025.000
 20
59542.468
 30
0
 11
160023.240
 21
59538.949
 31
0
  0
LINE
  8
0
 62
4
 10
160098.240
 20
59540.961
 30
0
 11
160101.760
 21
59540.961
 31
0
  0
LINE
  8
0
 62
4
 10
160100.000
 20
59544.480
 30
0
 11
160101.760
 21
59540.961
 31
0
  0
LINE
  8
0
 62
4
 10
160100.000
 20
59544.480
 30
0
 11
160098.240
 21
59540.961
 31
0
  0
LINE
  8
0
 62
4
 10
160203.240
 20
59540.311
 30
0
 11
160206.760
 21
59540.311
 31
0
  0
LINE
  8
0
 62
4
 10
160205.000
 20
59543.830
 30
0
 11
160206.760
 21
59540.311
 31
0
  0
LINE
  8
0
 62
4
 10
160205.000
 20
59543.830
 30
0
 11
160203.240
 21
59540.311
 31
0
  0
LINE
  8
0
 62
4
 10
160263.240
 20
59560.311
 30
0
 11
160266.760
 21
59560.311
 31
0
  0
LINE
  8
0
 62
4
 10
160265.000
 20
59563.830
 30
0
 11
160266.760
 21
59560.311
 31
0
  0
LINE
  8
0
 62
4
 10
160265.000
 20
59563.830
 30
0
 11
160263.240
 21
59560.311
 31
0
  0
LINE
  8
0
 62
4
 10
160488.240
 20
59568.031
 30
0
 11
160491.760
 21
59568.031
 31
0
  0
LINE
  8
0
 62
4
 10
160490.000
 20
59571.550
 30
0
 11
160491.760
 21
59568.031
 31
0
  0
LINE
  8
0
 62
4
 10
160490.000
 20
59571.550
 30
0
 11
160488.240
 21
59568.031
 31
0
  0
LINE
  8
0
 62
4
 10
160938.240
 20
59607.963
 30
0
 11
160941.760
 21
59607.963
 31
0
  0
LINE
  8
0
 62
4
 10
160940.000
 20
59611.482
 30
0
 11
160941.760
 21
59607.963
 31
0
  0
LINE
  8
0
 62
4
 10
160940.000
 20
59611.482
 30
0
 11
160938.240
 21
59607.963
 31
0
  0
LINE
  8
0
 62
4
 10
161034.240
 20
59612.753
 30
0
 11
161037.760
 21
59612.753
 31
0
  0
LINE
  8
0
 62
4
 10
161036.000
 20
59616.272
 30
0
 11
161037.760
 21
59612.753
 31
0
  0
LINE
  8
0
 62
4
 10
161036.000
 20
59616.272
 30
0
 11
161034.240
 21
59612.753
 31
0
  0
LINE
  8
0
 62
4
 10
161082.240
 20
59617.665
 30
0
 11
161085.760
 21
59617.665
 31
0
  0
LINE
  8
0
 62
4
 10
161084.000
 20
59621.184
 30
0
 11
161085.760
 21
59617.665
 31
0
  0
LINE
  8
0
 62
4
 10
161084.000
 20
59621.184
 30
0
 11
161082.240
 21
59617.665
 31
0
  0
LINE
  8
0
 62
4
 10
161108.240
 20
59633.573
 30
0
 11
161111.760
 21
59633.573
 31
0
  0
LINE
  8
0
 62
4
 10
161110.000
 20
59637.092
 30
0
 11
161111.760
 21
59633.573
 31
0
  0
LINE
  8
0
 62
4
 10
161110.000
 20
59637.092
 30
0
 11
161108.240
 21
59633.573
 31
0
  0
LINE
  8
0
 62
4
 10
161458.240
 20
59666.923
 30
0
 11
161461.760
 21
59666.923
 31
0
  0
LINE
  8
0
 62
4
 10
161460.000
 20
59670.442
 30
0
 11
161461.760
 21
59666.923
 31
0
  0
LINE
  8
0
 62
4
 10
161460.000
 20
59670.442
 30
0
 11
161458.240
 21
59666.923
 31
0
999
- - - Line Data - - -
  0
LINE
  8
0
 62
4
 10
154640.000
 20
59187.832
 30
0
 11
155590.000
 21
59236.206
 31
0
  0
LINE
  8
0
 62
4
 10
155590.000
 20
59236.206
 30
0
 11
156940.000
 21
59331.699
 31
0
  0
LINE
  8
0
 62
4
 10
156940.000
 20
59331.699
 30
0
 11
157355.000
 21
59361.196
 31
0
999
- - - Symbol Data - - -
  0
LINE
  8
0
 62
4
 10
154638.240
 20
59189.005
 30
0
 11
154641.760
 21
59189.005
 31
0
  0
LINE
  8
0
 62
4
 10
154640.000
 20
59185.486
 30
0
 11
154641.760
 21
59189.005
 31
0
  0
LINE
  8
0
 62
4
 10
154640.000
 20
59185.486
 30
0
 11
154638.240
 21
59189.005
 31
0
  0
LINE
  8
0
 62
4
 10
155588.240
 20
59237.379
 30
0
 11
155591.760
 21
59237.379
 31
0
  0
LINE
  8
0
 62
4
 10
155590.000
 20
59233.860
 30
0
 11
155591.760
 21
59237.379
 31
0
  0
LINE
  8
0
 62
4
 10
155590.000
 20
59233.860
 30
0
 11
155588.240
 21
59237.379
 31
0
  0
LINE
  8
0
 62
4
 10
156938.240
 20
59332.872
 30
0
 11
156941.760
 21
59332.872
 31
0
  0
LINE
  8
0
 62
4
 10
156940.000
 20
59329.353
 30
0
 11
156941.760
 21
59332.872
 31
0
  0
LINE
  8
0
 62
4
 10
156940.000
 20
59329.353
 30
0
 11
156938.240
 21
59332.872
 31
0
  0
LINE
  8
0
 62
4
 10
157353.240
 20
59362.369
 30
0
 11
157356.760
 21
59362.369
 31
0
  0
LINE
  8
0
 62
4
 10
157355.000
 20
59358.850
 30
0
 11
157356.760
 21
59362.369
 31
0
  0
LINE
  8
0
 62
4
 10
157355.000
 20
59358.850
 30
0
 11
157353.240
 21
59362.369
 31
0
999
- - - Line Data - - -
  0
LINE
  8
0
 62
4
 10
157355.000
 20
59361.196
 30
0
 11
158445.000
 21
59440.430
 31
0
  0
LINE
  8
0
 62
4
 10
158445.000
 20
59440.430
 30
0
 11
159535.000
 21
59510.537
 31
0
  0
LINE
  8
0
 62
4
 10
159535.000
 20
59510.537
 30
0
 11
159555.000
 21
59506.914
 31
0
  0
LINE
  8
0
 62
4
 10
159555.000
 20
59506.914
 30
0
 11
159557.000
 21
59508.701
 31
0
  0
LINE
  8
0
 62
4
 10
159557.000
 20
59508.701
 30
0
 11
159642.000
 21
59532.871
 31
0
  0
LINE
  8
0
 62
4
 10
159642.000
 20
59532.871
 30
0
 11
159645.000
 21
59540.195
 31
0
999
- - - Symbol Data - - -
  0
LINE
  8
0
 62
4
 10
157353.240
 20
59362.369
 30
0
 11
157356.760
 21
59362.369
 31
0
  0
LINE
  8
0
 62
4
 10
157355.000
 20
59358.850
 30
0
 11
157356.760
 21
59362.369
 31
0
  0
LINE
  8
0
 62
4
 10
157355.000
 20
59358.850
 30
0
 11
157353.240
 21
59362.369
 31
0
  0
LINE
  8
0
 62
4
 10
158443.240
 20
59441.603
 30
0
 11
158446.760
 21
59441.603
 31
0
  0
LINE
  8
0
 62
4
 10
158445.000
 20
59438.084
 30
0
 11
158446.760
 21
59441.603
 31
0
  0
LINE
  8
0
 62
4
 10
158445.000
 20
59438.084
 30
0
 11
158443.240
 21
59441.603
 31
0
  0
LINE
  8
0
 62
4
 10
159533.240
 20
59511.710
 30
0
 11
159536.760
 21
59511.710
 31
0
  0
LINE
  8
0
 62
4
 10
159535.000
 20
59508.191
 30
0
 11
159536.760
 21
59511.710
 31
0
  0
LINE
  8
0
 62
4
 10
159535.000
 20
59508.191
 30
0
 11
159533.240
 21
59511.710
 31
0
  0
LINE
  8
0
 62
4
 10
159553.240
 20
59508.087
 30
0
 11
159556.760
 21
59508.087
 31
0
  0
LINE
  8
0
 62
4
 10
159555.000
 20
59504.568
 30
0
 11
159556.760
 21
59508.087
 31
0
  0
LINE
  8
0
 62
4
 10
159555.000
 20
59504.568
 30
0
 11
159553.240
 21
59508.087
 31
0
  0
LINE
  8
0
 62
4
 10
159555.240
 20
59509.874
 30
0
 11
159558.760
 21
59509.874
 31
0
  0
LINE
  8
0
 62
4
 10
159557.000
 20
59506.355
 30
0
 11
159558.760
 21
59509.874
 31
0
  0
LINE
  8
0
 62
4
 10
159557.000
 20
59506.355
 30
0
 11
159555.240
 21
59509.874
 31
0
  0
LINE
  8
0
 62
4
 10
159640.240
 20
59534.044
 30
0
 11
159643.760
 21
59534.044
 31
0
  0
LINE
  8
0
 62
4
 10
159642.000
 20
59530.525
 30
0
 11
159643.760
 21
59534.044
 31
0
  0
LINE
  8
0
 62
4
 10
159642.000
 20
59530.525
 30
0
 11
159640.240
 21
59534.044
 31
0
  0
LINE
  8
0
 62
4
 10
159643.240
 20
59541.368
 30
0
 11
159646.760
 21
59541.368
 31
0
  0
LINE
  8
0
 62
4
 10
159645.000
 20
59537.849
 30
0
 11
159646.760
 21
59541.368
 31
0
  0
LINE
  8
0
 62
4
 10
159645.000
 20
59537.849
 30
0
 11
159643.240
 21
59541.368
 31
0
999
- - - Line Data - - -
  0
LINE
  8
0
 62
4
 10
159645.000
 20
59540.195
 30
0
 11
159965.000
 21
59557.339
 31
0
  0
LINE
  8
0
 62
4
 10
159965.000
 20
59557.339
 30
0
 11
159970.000
 21
59571.504
 31
0
  0
LINE
  8
0
 62
4
 10
159970.000
 20
59571.504
 30
0
 11
159972.000
 21
59555.957
 31
0
  0
LINE
  8
0
 62
4
 10
159972.000
 20
59555.957
 30
0
 11
160018.000
 21
59666.543
 31
0
  0
LINE
  8
0
 62
4
 10
160018.000
 20
59666.543
 30
0
 11
160020.000
 21
59665.835
 31
0
  0
LINE
  8
0
 62
4
 10
160020.000
 20
59665.835
 30
0
 11
160025.000
 21
59665.029
 31
0
  0
LINE
  8
0
 62
4
 10
160025.000
 20
59665.029
 30
0
 11
160100.000
 21
59665.132
 31
0
  0
LINE
  8
0
 62
4
 10
160100.000
 20
59665.132
 30
0
 11
160205.000
 21
59667.104
 31
0
  0
LINE
  8
0
 62
4
 10
160205.000
 20
59667.104
 30
0
 11
160265.000
 21
59670.313
 31
0
  0
LINE
  8
0
 62
4
 10
160265.000
 20
59670.313
 30
0
 11
160490.000
 21
59673.062
 31
0
  0
LINE
  8
0
 62
4
 10
160490.000
 20
59673.062
 30
0
 11
160940.000
 21
59674.063
 31
0
  0
LINE
  8
0
 62
4
 10
160940.000
 20
59674.063
 30
0
 11
161036.000
 21
59672.378
 31
0
  0
LINE
  8
0
 62
4
 10
161036.000
 20
59672.378
 30
0
 11
161084.000
 21
59713.843
 31
0
  0
LINE
  8
0
 62
4
 10
161084.000
 20
59713.843
 30
0
 11
161110.000
 21
59729.497
 31
0
  0
LINE
  8
0
 62
4
 10
161110.000
 20
59729.497
 30
0
 11
161460.000
 21
59749.775
 31
0
999
- - - Symbol Data - - -
  0
LINE
  8
0
 62
4
 10
159643.240
 20
59541.368
 30
0
 11
159646.760
 21
59541.368
 31
0
  0
LINE
  8
0
 62
4
 10
159645.000
 20
59537.849
 30
0
 11
159646.760
 21
59541.368
 31
0
  0
LINE
  8
0
 62
4
 10
159645.000
 20
59537.849
 30
0
 11
159643.240
 21
59541.368
 31
0
  0
LINE
  8
0
 62
4
 10
159963.240
 20
59558.512
 30
0
 11
159966.760
 21
59558.512
 31
0
  0
LINE
  8
0
 62
4
 10
159965.000
 20
59554.993
 30
0
 11
159966.760
 21
59558.512
 31
0
  0
LINE
  8
0
 62
4
 10
159965.000
 20
59554.993
 30
0
 11
159963.240
 21
59558.512
 31
0
  0
LINE
  8
0
 62
4
 10
159968.240
 20
59572.677
 30
0
 11
159971.760
 21
59572.677
 31
0
  0
LINE
  8
0
 62
4
 10
159970.000
 20
59569.158
 30
0
 11
159971.760
 21
59572.677
 31
0
  0
LINE
  8
0
 62
4
 10
159970.000
 20
59569.158
 30
0
 11
159968.240
 21
59572.677
 31
0
  0
LINE
  8
0
 62
4
 10
159970.240
 20
59557.130
 30
0
 11
159973.760
 21
59557.130
 31
0
  0
LINE
  8
0
 62
4
 10
159972.000
 20
59553.611
 30
0
 11
159973.760
 21
59557.130
 31
0
  0
LINE
  8
0
 62
4
 10
159972.000
 20
59553.611
 30
0
 11
159970.240
 21
59557.130
 31
0
  0
LINE
  8
0
 62
4
 10
160016.240
 20
59667.716
 30
0
 11
160019.760
 21
59667.716
 31
0
  0
LINE
  8
0
 62
4
 10
160018.000
 20
59664.197
 30
0
 11
160019.760
 21
59667.716
 31
0
  0
LINE
  8
0
 62
4
 10
160018.000
 20
59664.197
 30
0
 11
160016.240
 21
59667.716
 31
0
  0
LINE
  8
0
 62
4
 10
160018.240
 20
59667.008
 30
0
 11
160021.760
 21
59667.008
 31
0
  0
LINE
  8
0
 62
4
 10
160020.000
 20
59663.489
 30
0
 11
160021.760
 21
59667.008
 31
0
  0
LINE
  8
0
 62
4
 10
160020.000
 20
59663.489
 30
0
 11
160018.240
 21
59667.008
 31
0
  0
LINE
  8
0
 62
4
 10
160023.240
 20
59666.202
 30
0
 11
160026.760
 21
59666.202
 31
0
  0
LINE
  8
0
 62
4
 10
160025.000
 20
59662.683
 30
0
 11
160026.760
 21
59666.202
 31
0
  0
LINE
  8
0
 62
4
 10
160025.000
 20
59662.683
 30
0
 11
160023.240
 21
59666.202
 31
0
  0
LINE
  8
0
 62
4
 10
160098.240
 20
59666.305
 30
0
 11
160101.760
 21
59666.305
 31
0
  0
LINE
  8
0
 62
4
 10
160100.000
 20
59662.786
 30
0
 11
160101.760
 21
59666.305
 31
0
  0
LINE
  8
0
 62
4
 10
160100.000
 20
59662.786
 30
0
 11
160098.240
 21
59666.305
 31
0
  0
LINE
  8
0
 62
4
 10
160203.240
 20
59668.278
 30
0
 11
160206.760
 21
59668.278
 31
0
  0
LINE
  8
0
 62
4
 10
160205.000
 20
59664.758
 30
0
 11
160206.760
 21
59668.278
 31
0
  0
LINE
  8
0
 62
4
 10
160205.000
 20
59664.758
 30
0
 11
160203.240
 21
59668.278
 31
0
  0
LINE
  8
0
 62
4
 10
160263.240
 20
59671.486
 30
0
 11
160266.760
 21
59671.486
 31
0
  0
LINE
  8
0
 62
4
 10
160265.000
 20
59667.966
 30
0
 11
160266.760
 21
59671.486
 31
0
  0
LINE
  8
0
 62
4
 10
160265.000
 20
59667.966
 30
0
 11
160263.240
 21
59671.486
 31
0
  0
LINE
  8
0
 62
4
 10
160488.240
 20
59674.235
 30
0
 11
160491.760
 21
59674.235
 31
0
  0
LINE
  8
0
 62
4
 10
160490.000
 20
59670.715
 30
0
 11
160491.760
 21
59674.235
 31
0
  0
LINE
  8
0
 62
4
 10
160490.000
 20
59670.715
 30
0
 11
160488.240
 21
59674.235
 31
0
  0
LINE
  8
0
 62
4
 10
160938.240
 20
59675.236
 30
0
 11
160941.760
 21
59675.236
 31
0
  0
LINE
  8
0
 62
4
 10
160940.000
 20
59671.716
 30
0
 11
160941.760
 21
59675.236
 31
0
  0
LINE
  8
0
 62
4
 10
160940.000
 20
59671.716
 30
0
 11
160938.240
 21
59675.236
 31
0
  0
LINE
  8
0
 62
4
 10
161034.240
 20
59673.551
 30
0
 11
161037.760
 21
59673.551
 31
0
  0
LINE
  8
0
 62
4
 10
161036.000
 20
59670.032
 30
0
 11
161037.760
 21
59673.551
 31
0
  0
LINE
  8
0
 62
4
 10
161036.000
 20
59670.032
 30
0
 11
161034.240
 21
59673.551
 31
0
  0
LINE
  8
0
 62
4
 10
161082.240
 20
59715.016
 30
0
 11
161085.760
 21
59715.016
 31
0
  0
LINE
  8
0
 62
4
 10
161084.000
 20
59711.497
 30
0
 11
161085.760
 21
59715.016
 31
0
  0
LINE
  8
0
 62
4
 10
161084.000
 20
59711.497
 30
0
 11
161082.240
 21
59715.016
 31
0
  0
LINE
  8
0
 62
4
 10
161108.240
 20
59730.670
 30
0
 11
161111.760
 21
59730.670
 31
0
  0
LINE
  8
0
 62
4
 10
161110.000
 20
59727.151
 30
0
 11
161111.760
 21
59730.670
 31
0
  0
LINE
  8
0
 62
4
 10
161110.000
 20
59727.151
 30
0
 11
161108.240
 21
59730.670
 31
0
  0
LINE
  8
0
 62
4
 10
161458.240
 20
59750.948
 30
0
 11
161461.760
 21
59750.948
 31
0
  0
LINE
  8
0
 62
4
 10
161460.000
 20
59747.429
 30
0
 11
161461.760
 21
59750.948
 31
0
  0
LINE
  8
0
 62
4
 10
161460.000
 20
59747.429
 30
0
 11
161458.240
 21
59750.948
 31
0
999
- - - Line Data - - -
  0
LINE
  8
0
 62
4
 10
154640.000
 20
59243.726
 30
0
 11
155590.000
 21
59317.354
 31
0
  0
LINE
  8
0
 62
4
 10
155590.000
 20
59317.354
 30
0
 11
156940.000
 21
59407.925
 31
0
  0
LINE
  8
0
 62
4
 10
156940.000
 20
59407.925
 30
0
 11
157355.000
 21
59437.715
 31
0
999
- - - Symbol Data - - -
  0
LINE
  8
0
 62
4
 10
154638.240
 20
59241.966
 30
0
 11
154641.760
 21
59245.485
 31
0
  0
LINE
  8
0
 62
4
 10
154638.240
 20
59245.485
 30
0
 11
154641.760
 21
59241.966
 31
0
  0
LINE
  8
0
 62
4
 10
155588.240
 20
59315.594
 30
0
 11
155591.760
 21
59319.113
 31
0
  0
LINE
  8
0
 62
4
 10
155588.240
 20
59319.113
 30
0
 11
155591.760
 21
59315.594
 31
0
  0
LINE
  8
0
 62
4
 10
156938.240
 20
59406.165
 30
0
 11
156941.760
 21
59409.684
 31
0
  0
LINE
  8
0
 62
4
 10
156938.240
 20
59409.684
 30
0
 11
156941.760
 21
59406.165
 31
0
  0
LINE
  8
0
 62
4
 10
157353.240
 20
59435.955
 30
0
 11
157356.760
 21
59439.474
 31
0
  0
LINE
  8
0
 62
4
 10
157353.240
 20
59439.474
 30
0
 11
157356.760
 21
59435.955
 31
0
999
- - - Line Data - - -
  0
LINE
  8
0
 62
4
 10
157355.000
 20
59437.715
 30
0
 11
158445.000
 21
59521.699
 31
0
  0
LINE
  8
0
 62
4
 10
158445.000
 20
59521.699
 30
0
 11
159535.000
 21
59624.814
 31
0
  0
LINE
  8
0
 62
4
 10
159535.000
 20
59624.814
 30
0
 11
159555.000
 21
59637.100
 31
0
  0
LINE
  8
0
 62
4
 10
159555.000
 20
59637.100
 30
0
 11
159557.000
 21
59599.482
 31
0
  0
LINE
  8
0
 62
4
 10
159557.000
 20
59599.482
 30
0
 11
159642.000
 21
59605.854
 31
0
  0
LINE
  8
0
 62
4
 10
159642.000
 20
59605.854
 30
0
 11
159645.000
 21
59682.046
 31
0
999
- - - Symbol Data - - -
  0
LINE
  8
0
 62
4
 10
157353.240
 20
59435.955
 30
0
 11
157356.760
 21
59439.474
 31
0
  0
LINE
  8
0
 62
4
 10
157353.240
 20
59439.474
 30
0
 11
157356.760
 21
59435.955
 31
0
  0
LINE
  8
0
 62
4
 10
158443.240
 20
59519.940
 30
0
 11
158446.760
 21
59523.459
 31
0
  0
LINE
  8
0
 62
4
 10
158443.240
 20
59523.459
 30
0
 11
158446.760
 21
59519.940
 31
0
  0
LINE
  8
0
 62
4
 10
159533.240
 20
59623.055
 30
0
 11
159536.760
 21
59626.574
 31
0
  0
LINE
  8
0
 62
4
 10
159533.240
 20
59626.574
 30
0
 11
159536.760
 21
59623.055
 31
0
  0
LINE
  8
0
 62
4
 10
159553.240
 20
59635.340
 30
0
 11
159556.760
 21
59638.859
 31
0
  0
LINE
  8
0
 62
4
 10
159553.240
 20
59638.859
 30
0
 11
159556.760
 21
59635.340
 31
0
  0
LINE
  8
0
 62
4
 10
159555.240
 20
59597.723
 30
0
 11
159558.760
 21
59601.242
 31
0
  0
LINE
  8
0
 62
4
 10
159555.240
 20
59601.242
 30
0
 11
159558.760
 21
59597.723
 31
0
  0
LINE
  8
0
 62
4
 10
159640.240
 20
59604.095
 30
0
 11
159643.760
 21
59607.614
 31
0
  0
LINE
  8
0
 62
4
 10
159640.240
 20
59607.614
 30
0
 11
159643.760
 21
59604.095
 31
0
  0
LINE
  8
0
 62
4
 10
159643.240
 20
59680.286
 30
0
 11
159646.760
 21
59683.805
 31
0
  0
LINE
  8
0
 62
4
 10
159643.240
 20
59683.805
 30
0
 11
159646.760
 21
59680.286
 31
0
999
- - - Line Data - - -
  0
LINE
  8
0
 62
4
 10
159645.000
 20
59682.046
 30
0
 11
159965.000
 21
59698.877
 31
0
  0
LINE
  8
0
 62
4
 10
159965.000
 20
59698.877
 30
0
 11
159970.000
 21
59698.833
 31
0
  0
LINE
  8
0
 62
4
 10
159970.000
 20
59698.833
 30
0
 11
159972.000
 21
59697.905
 31
0
  0
LINE
  8
0
 62
4
 10
159972.000
 20
59697.905
 30
0
 11
160018.000
 21
59696.978
 31
0
  0
LINE
  8
0
 62
4
 10
160018.000
 20
59696.978
 30
0
 11
160020.000
 21
59694.590
 31
0
  0
LINE
  8
0
 62
4
 10
160020.000
 20
59694.590
 30
0
 11
160025.000
 21
59687.427
 31
0
  0
LINE
  8
0
 62
4
 10
160025.000
 20
59687.427
 30
0
 11
160100.000
 21
59686.743
 31
0
  0
LINE
  8
0
 62
4
 10
160100.000
 20
59686.743
 30
0
 11
160205.000
 21
59704.219
 31
0
  0
LINE
  8
0
 62
4
 10
160205.000
 20
59704.219
 30
0
 11
160265.000
 21
59720.630
 31
0
  0
LINE
  8
0
 62
4
 10
160265.000
 20
59720.630
 30
0
 11
160490.000
 21
59730.854
 31
0
  0
LINE
  8
0
 62
4
 10
160490.000
 20
59730.854
 30
0
 11
160940.000
 21
59731.553
 31
0
  0
LINE
  8
0
 62
4
 10
160940.000
 20
59731.553
 30
0
 11
161036.000
 21
59730.498
 31
0
  0
LINE
  8
0
 62
4
 10
161036.000
 20
59730.498
 30
0
 11
161084.000
 21
59747.871
 31
0
  0
LINE
  8
0
 62
4
 10
161084.000
 20
59747.871
 30
0
 11
161110.000
 21
59762.642
 31
0
  0
LINE
  8
0
 62
4
 10
161110.000
 20
59762.642
 30
0
 11
161460.000
 21
59792.451
 31
0
999
- - - Symbol Data - - -
  0
LINE
  8
0
 62
4
 10
159643.240
 20
59680.286
 30
0
 11
159646.760
 21
59683.805
 31
0
  0
LINE
  8
0
 62
4
 10
159643.240
 20
59683.805
 30
0
 11
159646.760
 21
59680.286
 31
0
  0
LINE
  8
0
 62
4
 10
159963.240
 20
59697.117
 30
0
 11
159966.760
 21
59700.636
 31
0
  0
LINE
  8
0
 62
4
 10
159963.240
 20
59700.636
 30
0
 11
159966.760
 21
59697.117
 31
0
  0
LINE
  8
0
 62
4
 10
159968.240
 20
59697.073
 30
0
 11
159971.760
 21
59700.593
 31
0
  0
LINE
  8
0
 62
4
 10
159968.240
 20
59700.593
 30
0
 11
159971.760
 21
59697.073
 31
0
  0
LINE
  8
0
 62
4
 10
159970.240
 20
59696.146
 30
0
 11
159973.760
 21
59699.665
 31
0
  0
LINE
  8
0
 62
4
 10
159970.240
 20
59699.665
 30
0
 11
159973.760
 21
59696.146
 31
0
  0
LINE
  8
0
 62
4
 10
160016.240
 20
59695.218
 30
0
 11
160019.760
 21
59698.737
 31
0
  0
LINE
  8
0
 62
4
 10
160016.240
 20
59698.737
 30
0
 11
160019.760
 21
59695.218
 31
0
  0
LINE
  8
0
 62
4
 10
160018.240
 20
59692.830
 30
0
 11
160021.760
 21
59696.349
 31
0
  0
LINE
  8
0
 62
4
 10
160018.240
 20
59696.349
 30
0
 11
160021.760
 21
59692.830
 31
0
  0
LINE
  8
0
 62
4
 10
160023.240
 20
59685.667
 30
0
 11
160026.760
 21
59689.186
 31
0
  0
LINE
  8
0
 62
4
 10
160023.240
 20
59689.186
 30
0
 11
160026.760
 21
59685.667
 31
0
  0
LINE
  8
0
 62
4
 10
160098.240
 20
59684.984
 30
0
 11
160101.760
 21
59688.503
 31
0
  0
LINE
  8
0
 62
4
 10
160098.240
 20
59688.503
 30
0
 11
160101.760
 21
59684.984
 31
0
  0
LINE
  8
0
 62
4
 10
160203.240
 20
59702.459
 30
0
 11
160206.760
 21
59705.978
 31
0
  0
LINE
  8
0
 62
4
 10
160203.240
 20
59705.978
 30
0
 11
160206.760
 21
59702.459
 31
0
  0
LINE
  8
0
 62
4
 10
160263.240
 20
59718.870
 30
0
 11
160266.760
 21
59722.389
 31
0
  0
LINE
  8
0
 62
4
 10
160263.240
 20
59722.389
 30
0
 11
160266.760
 21
59718.870
 31
0
  0
LINE
  8
0
 62
4
 10
160488.240
 20
59729.095
 30
0
 11
160491.760
 21
59732.614
 31
0
  0
LINE
  8
0
 62
4
 10
160488.240
 20
59732.614
 30
0
 11
160491.760
 21
59729.095
 31
0
  0
LINE
  8
0
 62
4
 10
160938.240
 20
59729.793
 30
0
 11
160941.760
 21
59733.312
 31
0
  0
LINE
  8
0
 62
4
 10
160938.240
 20
59733.312
 30
0
 11
160941.760
 21
59729.793
 31
0
  0
LINE
  8
0
 62
4
 10
161034.240
 20
59728.739
 30
0
 11
161037.760
 21
59732.258
 31
0
  0
LINE
  8
0
 62
4
 10
161034.240
 20
59732.258
 30
0
 11
161037.760
 21
59728.739
 31
0
  0
LINE
  8
0
 62
4
 10
161082.240
 20
59746.112
 30
0
 11
161085.760
 21
59749.631
 31
0
  0
LINE
  8
0
 62
4
 10
161082.240
 20
59749.631
 30
0
 11
161085.760
 21
59746.112
 31
0
  0
LINE
  8
0
 62
4
 10
161108.240
 20
59760.882
 30
0
 11
161111.760
 21
59764.401
 31
0
  0
LINE
  8
0
 62
4
 10
161108.240
 20
59764.401
 30
0
 11
161111.760
 21
59760.882
 31
0
  0
LINE
  8
0
 62
4
 10
161458.240
 20
59790.692
 30
0
 11
161461.760
 21
59794.211
 31
0
  0
LINE
  8
0
 62
4
 10
161458.240
 20
59794.211
 30
0
 11
161461.760
 21
59790.692
 31
0
  0
ENDSEC
  0
EOF
