  0
SECTION
  2
ENTITIES
999
- - - Grid Lines - - -
  0
LINE
  8
0
 62
9
 10
290000.000
 20
601000.000
 30
0
 11
290000.000
 21
593000.000
 31
0
  0
LINE
  8
0
 62
9
 10
300000.000
 20
601000.000
 30
0
 11
300000.000
 21
593000.000
 31
0
  0
LINE
  8
0
 62
9
 10
310000.000
 20
601000.000
 30
0
 11
310000.000
 21
593000.000
 31
0
  0
LINE
  8
0
 62
9
 10
320000.000
 20
601000.000
 30
0
 11
320000.000
 21
593000.000
 31
0
  0
LINE
  8
0
 62
9
 10
330000.000
 20
601000.000
 30
0
 11
330000.000
 21
593000.000
 31
0
  0
LINE
  8
0
 62
9
 10
340000.000
 20
601000.000
 30
0
 11
340000.000
 21
593000.000
 31
0
  0
LINE
  8
0
 62
9
 10
350000.000
 20
601000.000
 30
0
 11
350000.000
 21
593000.000
 31
0
  0
LINE
  8
0
 62
9
 10
290000.000
 20
593000.000
 30
0
 11
350000.000
 21
593000.000
 31
0
  0
LINE
  8
0
 62
9
 10
290000.000
 20
594000.000
 30
0
 11
350000.000
 21
594000.000
 31
0
  0
LINE
  8
0
 62
9
 10
290000.000
 20
595000.000
 30
0
 11
350000.000
 21
595000.000
 31
0
  0
LINE
  8
0
 62
9
 10
290000.000
 20
596000.000
 30
0
 11
350000.000
 21
596000.000
 31
0
  0
LINE
  8
0
 62
9
 10
290000.000
 20
597000.000
 30
0
 11
350000.000
 21
597000.000
 31
0
  0
LINE
  8
0
 62
9
 10
290000.000
 20
598000.000
 30
0
 11
350000.000
 21
598000.000
 31
0
  0
LINE
  8
0
 62
9
 10
290000.000
 20
599000.000
 30
0
 11
350000.000
 21
599000.000
 31
0
  0
LINE
  8
0
 62
9
 10
290000.000
 20
600000.000
 30
0
 11
350000.000
 21
600000.000
 31
0
  0
LINE
  8
0
 62
9
 10
290000.000
 20
601000.000
 30
0
 11
350000.000
 21
601000.000
 31
0
  0
LINE
  8
0
 62
9
 10
292000.000
 20
601000.000
 30
0
 11
292000.000
 21
593000.000
 31
0
  0
LINE
  8
0
 62
9
 10
294000.000
 20
601000.000
 30
0
 11
294000.000
 21
593000.000
 31
0
  0
LINE
  8
0
 62
9
 10
296000.000
 20
601000.000
 30
0
 11
296000.000
 21
593000.000
 31
0
  0
LINE
  8
0
 62
9
 10
298000.001
 20
601000.000
 30
0
 11
298000.001
 21
593000.000
 31
0
  0
LINE
  8
0
 62
9
 10
301999.999
 20
601000.000
 30
0
 11
301999.999
 21
593000.000
 31
0
  0
LINE
  8
0
 62
9
 10
303999.999
 20
601000.000
 30
0
 11
303999.999
 21
593000.000
 31
0
  0
LINE
  8
0
 62
9
 10
305999.998
 20
601000.000
 30
0
 11
305999.998
 21
593000.000
 31
0
  0
LINE
  8
0
 62
9
 10
307999.998
 20
601000.000
 30
0
 11
307999.998
 21
593000.000
 31
0
  0
LINE
  8
0
 62
9
 10
311999.999
 20
601000.000
 30
0
 11
311999.999
 21
593000.000
 31
0
  0
LINE
  8
0
 62
9
 10
313999.999
 20
601000.000
 30
0
 11
313999.999
 21
593000.000
 31
0
  0
LINE
  8
0
 62
9
 10
315999.998
 20
601000.000
 30
0
 11
315999.998
 21
593000.000
 31
0
  0
LINE
  8
0
 62
9
 10
317999.998
 20
601000.000
 30
0
 11
317999.998
 21
593000.000
 31
0
  0
LINE
  8
0
 62
9
 10
321999.999
 20
601000.000
 30
0
 11
321999.999
 21
593000.000
 31
0
  0
LINE
  8
0
 62
9
 10
323999.999
 20
601000.000
 30
0
 11
323999.999
 21
593000.000
 31
0
  0
LINE
  8
0
 62
9
 10
325999.998
 20
601000.000
 30
0
 11
325999.998
 21
593000.000
 31
0
  0
LINE
  8
0
 62
9
 10
327999.998
 20
601000.000
 30
0
 11
327999.998
 21
593000.000
 31
0
  0
LINE
  8
0
 62
9
 10
331999.999
 20
601000.000
 30
0
 11
331999.999
 21
593000.000
 31
0
  0
LINE
  8
0
 62
9
 10
333999.999
 20
601000.000
 30
0
 11
333999.999
 21
593000.000
 31
0
  0
LINE
  8
0
 62
9
 10
336000.001
 20
601000.000
 30
0
 11
336000.001
 21
593000.000
 31
0
  0
LINE
  8
0
 62
9
 10
338000.004
 20
601000.000
 30
0
 11
338000.004
 21
593000.000
 31
0
  0
LINE
  8
0
 62
9
 10
342000.002
 20
601000.000
 30
0
 11
342000.002
 21
593000.000
 31
0
  0
LINE
  8
0
 62
9
 10
344000.005
 20
601000.000
 30
0
 11
344000.005
 21
593000.000
 31
0
  0
LINE
  8
0
 62
9
 10
346000.007
 20
601000.000
 30
0
 11
346000.007
 21
593000.000
 31
0
  0
LINE
  8
0
 62
9
 10
348000.010
 20
601000.000
 30
0
 11
348000.010
 21
593000.000
 31
0
  0
LINE
  8
0
 62
9
 10
290000.000
 20
593500.000
 30
0
 11
350000.000
 21
593500.000
 31
0
  0
LINE
  8
0
 62
9
 10
290000.000
 20
594500.000
 30
0
 11
350000.000
 21
594500.000
 31
0
  0
LINE
  8
0
 62
9
 10
290000.000
 20
595500.000
 30
0
 11
350000.000
 21
595500.000
 31
0
  0
LINE
  8
0
 62
9
 10
290000.000
 20
596500.000
 30
0
 11
350000.000
 21
596500.000
 31
0
  0
LINE
  8
0
 62
9
 10
290000.000
 20
597500.000
 30
0
 11
350000.000
 21
597500.000
 31
0
  0
LINE
  8
0
 62
9
 10
290000.000
 20
598500.000
 30
0
 11
350000.000
 21
598500.000
 31
0
  0
LINE
  8
0
 62
9
 10
290000.000
 20
599500.000
 30
0
 11
350000.000
 21
599500.000
 31
0
  0
LINE
  8
0
 62
9
 10
290000.000
 20
600500.000
 30
0
 11
350000.000
 21
600500.000
 31
0
  0
LINE
  8
0
 62
7
 10
290000.000
 20
593000.000
 30
0
 11
290000.000
 21
601000.000
 31
0
  0
LINE
  8
0
 62
7
 10
290000.000
 20
601000.000
 30
0
 11
350000.000
 21
601000.000
 31
0
  0
LINE
  8
0
 62
7
 10
350000.000
 20
601000.000
 30
0
 11
350000.000
 21
593000.000
 31
0
  0
LINE
  8
0
 62
7
 10
350000.000
 20
593000.000
 30
0
 11
290000.000
 21
593000.000
 31
0
999
- - - Axis - - -
  0
LINE
  8
0
 62
7
 10
290000.000
 20
593000.000
 30
0
 11
290000.000
 21
601000.000
 31
0
  0
LINE
  8
0
 62
7
 10
290000.000
 20
593000.000
 30
0
 11
350000.000
 21
593000.000
 31
0
  0
LINE
  8
0
 62
7
 10
290000.000
 20
593000.000
 30
0
 11
290000.000
 21
592939.985
 31
0
  0
Text
  8
0
 10
290000.000
 20
592909.978
 30
0
 40
150.0367
 50
0
  1
29000
 72
1
 11
290000.000
 21
592909.978
 31
0
 73
3
  0
LINE
  8
0
 62
7
 10
300000.000
 20
593000.000
 30
0
 11
300000.000
 21
592939.985
 31
0
  0
Text
  8
0
 10
300000.000
 20
592909.978
 30
0
 40
150.0367
 50
0
  1
30000
 72
1
 11
300000.000
 21
592909.978
 31
0
 73
3
  0
LINE
  8
0
 62
7
 10
310000.000
 20
593000.000
 30
0
 11
310000.000
 21
592939.985
 31
0
  0
Text
  8
0
 10
310000.000
 20
592909.978
 30
0
 40
150.0367
 50
0
  1
31000
 72
1
 11
310000.000
 21
592909.978
 31
0
 73
3
  0
LINE
  8
0
 62
7
 10
320000.000
 20
593000.000
 30
0
 11
320000.000
 21
592939.985
 31
0
  0
Text
  8
0
 10
320000.000
 20
592909.978
 30
0
 40
150.0367
 50
0
  1
32000
 72
1
 11
320000.000
 21
592909.978
 31
0
 73
3
  0
LINE
  8
0
 62
7
 10
330000.000
 20
593000.000
 30
0
 11
330000.000
 21
592939.985
 31
0
  0
Text
  8
0
 10
330000.000
 20
592909.978
 30
0
 40
150.0367
 50
0
  1
33000
 72
1
 11
330000.000
 21
592909.978
 31
0
 73
3
  0
LINE
  8
0
 62
7
 10
340000.000
 20
593000.000
 30
0
 11
340000.000
 21
592939.985
 31
0
  0
Text
  8
0
 10
340000.000
 20
592909.978
 30
0
 40
150.0367
 50
0
  1
34000
 72
1
 11
340000.000
 21
592909.978
 31
0
 73
3
  0
LINE
  8
0
 62
7
 10
350000.000
 20
593000.000
 30
0
 11
350000.000
 21
592939.985
 31
0
  0
Text
  8
0
 10
350000.000
 20
592909.978
 30
0
 40
150.0367
 50
0
  1
35000
 72
1
 11
350000.000
 21
592909.978
 31
0
 73
3
  0
LINE
  8
0
 62
7
 10
292000.000
 20
593000.000
 30
0
 11
292000.000
 21
592962.491
 31
0
  0
LINE
  8
0
 62
7
 10
294000.000
 20
593000.000
 30
0
 11
294000.000
 21
592962.491
 31
0
  0
LINE
  8
0
 62
7
 10
296000.000
 20
593000.000
 30
0
 11
296000.000
 21
592962.491
 31
0
  0
LINE
  8
0
 62
7
 10
298000.001
 20
593000.000
 30
0
 11
298000.001
 21
592962.491
 31
0
  0
LINE
  8
0
 62
7
 10
301999.999
 20
593000.000
 30
0
 11
301999.999
 21
592962.491
 31
0
  0
LINE
  8
0
 62
7
 10
303999.999
 20
593000.000
 30
0
 11
303999.999
 21
592962.491
 31
0
  0
LINE
  8
0
 62
7
 10
305999.998
 20
593000.000
 30
0
 11
305999.998
 21
592962.491
 31
0
  0
LINE
  8
0
 62
7
 10
307999.998
 20
593000.000
 30
0
 11
307999.998
 21
592962.491
 31
0
  0
LINE
  8
0
 62
7
 10
311999.999
 20
593000.000
 30
0
 11
311999.999
 21
592962.491
 31
0
  0
LINE
  8
0
 62
7
 10
313999.999
 20
593000.000
 30
0
 11
313999.999
 21
592962.491
 31
0
  0
LINE
  8
0
 62
7
 10
315999.998
 20
593000.000
 30
0
 11
315999.998
 21
592962.491
 31
0
  0
LINE
  8
0
 62
7
 10
317999.998
 20
593000.000
 30
0
 11
317999.998
 21
592962.491
 31
0
  0
LINE
  8
0
 62
7
 10
321999.999
 20
593000.000
 30
0
 11
321999.999
 21
592962.491
 31
0
  0
LINE
  8
0
 62
7
 10
323999.999
 20
593000.000
 30
0
 11
323999.999
 21
592962.491
 31
0
  0
LINE
  8
0
 62
7
 10
325999.998
 20
593000.000
 30
0
 11
325999.998
 21
592962.491
 31
0
  0
LINE
  8
0
 62
7
 10
327999.998
 20
593000.000
 30
0
 11
327999.998
 21
592962.491
 31
0
  0
LINE
  8
0
 62
7
 10
331999.999
 20
593000.000
 30
0
 11
331999.999
 21
592962.491
 31
0
  0
LINE
  8
0
 62
7
 10
333999.999
 20
593000.000
 30
0
 11
333999.999
 21
592962.491
 31
0
  0
LINE
  8
0
 62
7
 10
336000.001
 20
593000.000
 30
0
 11
336000.001
 21
592962.491
 31
0
  0
LINE
  8
0
 62
7
 10
338000.004
 20
593000.000
 30
0
 11
338000.004
 21
592962.491
 31
0
  0
LINE
  8
0
 62
7
 10
342000.002
 20
593000.000
 30
0
 11
342000.002
 21
592962.491
 31
0
  0
LINE
  8
0
 62
7
 10
344000.005
 20
593000.000
 30
0
 11
344000.005
 21
592962.491
 31
0
  0
LINE
  8
0
 62
7
 10
346000.007
 20
593000.000
 30
0
 11
346000.007
 21
592962.491
 31
0
  0
LINE
  8
0
 62
7
 10
348000.010
 20
593000.000
 30
0
 11
348000.010
 21
592962.491
 31
0
  0
LINE
  8
0
 62
7
 10
290000.000
 20
593000.000
 30
0
 11
289939.985
 21
593000.000
 31
0
  0
Text
  8
0
 10
289879.971
 20
593000.000
 30
0
 40
150.0367
 50
0
  1
5930
 72
2
 11
289879.971
 21
593000.000
 31
0
 73
2
  0
LINE
  8
0
 62
7
 10
290000.000
 20
594000.000
 30
0
 11
289939.985
 21
594000.000
 31
0
  0
Text
  8
0
 10
289879.971
 20
594000.000
 30
0
 40
150.0367
 50
0
  1
5940
 72
2
 11
289879.971
 21
594000.000
 31
0
 73
2
  0
LINE
  8
0
 62
7
 10
290000.000
 20
595000.000
 30
0
 11
289939.985
 21
595000.000
 31
0
  0
Text
  8
0
 10
289879.971
 20
595000.000
 30
0
 40
150.0367
 50
0
  1
5950
 72
2
 11
289879.971
 21
595000.000
 31
0
 73
2
  0
LINE
  8
0
 62
7
 10
290000.000
 20
596000.000
 30
0
 11
289939.985
 21
596000.000
 31
0
  0
Text
  8
0
 10
289879.971
 20
596000.000
 30
0
 40
150.0367
 50
0
  1
5960
 72
2
 11
289879.971
 21
596000.000
 31
0
 73
2
  0
LINE
  8
0
 62
7
 10
290000.000
 20
597000.000
 30
0
 11
289939.985
 21
597000.000
 31
0
  0
Text
  8
0
 10
289879.971
 20
597000.000
 30
0
 40
150.0367
 50
0
  1
5970
 72
2
 11
289879.971
 21
597000.000
 31
0
 73
2
  0
LINE
  8
0
 62
7
 10
290000.000
 20
598000.000
 30
0
 11
289939.985
 21
598000.000
 31
0
  0
Text
  8
0
 10
289879.971
 20
598000.000
 30
0
 40
150.0367
 50
0
  1
5980
 72
2
 11
289879.971
 21
598000.000
 31
0
 73
2
  0
LINE
  8
0
 62
7
 10
290000.000
 20
599000.000
 30
0
 11
289939.985
 21
599000.000
 31
0
  0
Text
  8
0
 10
289879.971
 20
599000.000
 30
0
 40
150.0367
 50
0
  1
5990
 72
2
 11
289879.971
 21
599000.000
 31
0
 73
2
  0
LINE
  8
0
 62
7
 10
290000.000
 20
600000.000
 30
0
 11
289939.985
 21
600000.000
 31
0
  0
Text
  8
0
 10
289879.971
 20
600000.000
 30
0
 40
150.0367
 50
0
  1
6000
 72
2
 11
289879.971
 21
600000.000
 31
0
 73
2
  0
LINE
  8
0
 62
7
 10
290000.000
 20
601000.000
 30
0
 11
289939.985
 21
601000.000
 31
0
  0
Text
  8
0
 10
289879.971
 20
601000.000
 30
0
 40
150.0367
 50
0
  1
6010
 72
2
 11
289879.971
 21
601000.000
 31
0
 73
2
  0
LINE
  8
0
 62
7
 10
290000.000
 20
593500.000
 30
0
 11
289962.491
 21
593500.000
 31
0
  0
LINE
  8
0
 62
7
 10
290000.000
 20
594500.000
 30
0
 11
289962.491
 21
594500.000
 31
0
  0
LINE
  8
0
 62
7
 10
290000.000
 20
595500.000
 30
0
 11
289962.491
 21
595500.000
 31
0
  0
LINE
  8
0
 62
7
 10
290000.000
 20
596500.000
 30
0
 11
289962.491
 21
596500.000
 31
0
  0
LINE
  8
0
 62
7
 10
290000.000
 20
597500.000
 30
0
 11
289962.491
 21
597500.000
 31
0
  0
LINE
  8
0
 62
7
 10
290000.000
 20
598500.000
 30
0
 11
289962.491
 21
598500.000
 31
0
  0
LINE
  8
0
 62
7
 10
290000.000
 20
599500.000
 30
0
 11
289962.491
 21
599500.000
 31
0
  0
LINE
  8
0
 62
7
 10
290000.000
 20
600500.000
 30
0
 11
289962.491
 21
600500.000
 31
0
  0
Text
  8
0
 10
320000.000
 20
601281.319
 30
0
 40
187.5458
 50
0
  1
Cim/Bijou - Nevada/Tejon Proposed 2002       Plan: Proposed    8/5/2003 
 72
1
 11
320000.000
 21
601281.319
 31
0
 73
3
  0
Text
  8
0
 10
320000.000
 20
592371.136
 30
0
 40
150.0367
 50
0
  1
Main Channel Distance (ft)
 72
1
 11
320000.000
 21
592371.136
 31
0
 73
3
  0
Text
  8
0
 10
280997.801
 20
597000.000
 30
0
 40
150.0367
 50
90
  1
Elevation (ft)
 72
1
 11
280997.801
 21
597000.000
 31
0
 73
3
999
- - - Legend - - -
  0
Text
  8
0
 10
350675.165
 20
600924.982
 30
0
 40
150.0367
 50
0
  1
Legend
 72
1
 11
350675.165
 21
600924.982
 31
0
 73
3
  0
LINE
  8
0
 62
7
 10
350300.073
 20
600699.927
 30
0
 11
351050.257
 21
600699.927
 31
0
  0
LINE
  8
0
 62
4
 10
350300.073
 20
600474.872
 30
0
 11
351050.257
 21
600474.872
 31
0
  0
LINE
  8
0
 62
4
 10
350464.176
 20
600460.806
 30
0
 11
350886.154
 21
600460.806
 31
0
  0
LINE
  8
0
 62
4
 10
350675.165
 20
600503.004
 30
0
 11
350886.154
 21
600460.806
 31
0
  0
LINE
  8
0
 62
4
 10
350675.165
 20
600503.004
 30
0
 11
350464.176
 21
600460.806
 31
0
  0
Text
  8
0
 10
350675.165
 20
600324.835
 30
0
 40
150.0367
 50
0
  1
WS  100yr
 72
1
 11
350675.165
 21
600324.835
 31
0
 73
3
  0
LINE
  8
0
 62
7
 10
350300.073
 20
600099.780
 30
0
 11
351050.257
 21
600099.780
 31
0
  0
LINE
  8
0
 62
7
 10
350464.176
 20
600078.681
 30
0
 11
350464.176
 21
600120.879
 31
0
  0
LINE
  8
0
 62
7
 10
350464.176
 20
600120.879
 30
0
 11
350886.154
 21
600120.879
 31
0
  0
LINE
  8
0
 62
7
 10
350886.154
 20
600120.879
 30
0
 11
350886.154
 21
600078.681
 31
0
  0
LINE
  8
0
 62
7
 10
350886.154
 20
600078.681
 30
0
 11
350464.176
 21
600078.681
 31
0
  0
Text
  8
0
 10
350675.165
 20
599949.743
 30
0
 40
150.0367
 50
0
  1
Ground
 72
1
 11
350675.165
 21
599949.743
 31
0
 73
3
  0
LINE
  8
0
 62
7
 10
350150.037
 20
601000.000
 30
0
 11
351200.293
 21
601000.000
 31
0
  0
LINE
  8
0
 62
7
 10
351200.293
 20
601000.000
 30
0
 11
351200.293
 21
599724.688
 31
0
  0
LINE
  8
0
 62
7
 10
350150.037
 20
601000.000
 30
0
 11
350150.037
 21
599724.688
 31
0
  0
LINE
  8
0
 62
7
 10
351200.293
 20
599724.688
 30
0
 11
350150.037
 21
599724.688
 31
0
999
- - - Line Data - - -
999
- - - Line Data - - -
  0
LINE
  8
0
 62
7
 10
299920.000
 20
596079.688
 30
0
 11
309920.000
 21
596704.443
 31
0
  0
LINE
  8
0
 62
7
 10
309920.000
 20
596704.443
 30
0
 11
311470.000
 21
596536.963
 31
0
  0
LINE
  8
0
 62
7
 10
311470.000
 20
596536.963
 30
0
 11
311780.000
 21
596681.494
 31
0
  0
LINE
  8
0
 62
7
 10
311780.000
 20
596681.494
 30
0
 11
312780.000
 21
596857.520
 31
0
  0
LINE
  8
0
 62
7
 10
312780.000
 20
596857.520
 30
0
 11
315930.000
 21
596866.748
 31
0
  0
LINE
  8
0
 62
7
 10
315930.000
 20
596866.748
 30
0
 11
318810.000
 21
596843.604
 31
0
  0
LINE
  8
0
 62
7
 10
318810.000
 20
596843.604
 30
0
 11
319210.000
 21
596848.535
 31
0
  0
LINE
  8
0
 62
7
 10
319210.000
 20
596848.535
 30
0
 11
319710.000
 21
596859.668
 31
0
  0
LINE
  8
0
 62
7
 10
319710.000
 20
596859.668
 30
0
 11
319760.000
 21
596866.016
 31
0
  0
LINE
  8
0
 62
7
 10
319760.000
 20
596866.016
 30
0
 11
327540.000
 21
597105.371
 31
0
  0
LINE
  8
0
 62
7
 10
327540.000
 20
597105.371
 30
0
 11
331820.000
 21
597449.463
 31
0
  0
LINE
  8
0
 62
7
 10
331820.000
 20
597449.463
 30
0
 11
336390.000
 21
597947.949
 31
0
  0
LINE
  8
0
 62
7
 10
336390.000
 20
597947.949
 30
0
 11
336540.000
 21
597967.578
 31
0
  0
LINE
  8
0
 62
7
 10
336540.000
 20
597967.578
 30
0
 11
337490.000
 21
598365.234
 31
0
  0
LINE
  8
0
 62
7
 10
337490.000
 20
598365.234
 30
0
 11
337590.000
 21
598376.172
 31
0
  0
LINE
  8
0
 62
7
 10
337590.000
 20
598376.172
 30
0
 11
340640.000
 21
598460.059
 31
0
  0
LINE
  8
0
 62
7
 10
340640.000
 20
598460.059
 30
0
 11
340640.000
 21
596700.977
 31
0
  0
LINE
  8
0
 62
7
 10
340640.000
 20
596700.977
 30
0
 11
337590.000
 21
596500.977
 31
0
  0
LINE
  8
0
 62
7
 10
337590.000
 20
596500.977
 30
0
 11
337490.000
 21
596500.977
 31
0
  0
LINE
  8
0
 62
7
 10
337490.000
 20
596500.977
 30
0
 11
336540.000
 21
596350.977
 31
0
  0
LINE
  8
0
 62
7
 10
336540.000
 20
596350.977
 30
0
 11
336390.000
 21
596350.977
 31
0
  0
LINE
  8
0
 62
7
 10
336390.000
 20
596350.977
 30
0
 11
331820.000
 21
596100.977
 31
0
  0
LINE
  8
0
 62
7
 10
331820.000
 20
596100.977
 30
0
 11
327540.000
 21
595700.977
 31
0
  0
LINE
  8
0
 62
7
 10
327540.000
 20
595700.977
 30
0
 11
319760.000
 21
595000.977
 31
0
  0
LINE
  8
0
 62
7
 10
319760.000
 20
595000.977
 30
0
 11
319710.000
 21
595000.977
 31
0
  0
LINE
  8
0
 62
7
 10
319710.000
 20
595000.977
 30
0
 11
319210.000
 21
595000.977
 31
0
  0
LINE
  8
0
 62
7
 10
319210.000
 20
595000.977
 30
0
 11
318810.000
 21
595000.977
 31
0
  0
LINE
  8
0
 62
7
 10
318810.000
 20
595000.977
 30
0
 11
315930.000
 21
594400.000
 31
0
  0
LINE
  8
0
 62
7
 10
315930.000
 20
594400.000
 30
0
 11
312780.000
 21
594100.000
 31
0
  0
LINE
  8
0
 62
7
 10
312780.000
 20
594100.000
 30
0
 11
311780.000
 21
594029.980
 31
0
  0
LINE
  8
0
 62
7
 10
311780.000
 20
594029.980
 30
0
 11
311470.000
 21
594000.000
 31
0
  0
LINE
  8
0
 62
7
 10
311470.000
 20
594000.000
 30
0
 11
309920.000
 21
593900.000
 31
0
  0
LINE
  8
0
 62
7
 10
309920.000
 20
593900.000
 30
0
 11
299920.000
 21
593800.000
 31
0
  0
LINE
  8
0
 62
7
 10
299920.000
 20
593800.000
 30
0
 11
299920.000
 21
596079.688
 31
0
999
- - - Line Data - - -
  0
LINE
  8
0
 62
7
 10
319210.000
 20
597943.994
 30
0
 11
319210.000
 21
597943.994
 31
0
  0
LINE
  8
0
 62
7
 10
319210.000
 20
597943.994
 30
0
 11
319710.000
 21
598166.504
 31
0
  0
LINE
  8
0
 62
7
 10
319710.000
 20
598166.504
 30
0
 11
319710.000
 21
598166.504
 31
0
  0
LINE
  8
0
 62
7
 10
319710.000
 20
598166.504
 30
0
 11
319210.000
 21
597943.994
 31
0
999
- - - Line Data - - -
  0
LINE
  8
0
 62
7
 10
336540.000
 20
600650.000
 30
0
 11
336540.000
 21
600650.000
 31
0
  0
LINE
  8
0
 62
7
 10
336540.000
 20
600650.000
 30
0
 11
337490.000
 21
600614.648
 31
0
  0
LINE
  8
0
 62
7
 10
337490.000
 20
600614.648
 30
0
 11
337490.000
 21
600614.648
 31
0
  0
LINE
  8
0
 62
7
 10
337490.000
 20
600614.648
 30
0
 11
336540.000
 21
600650.000
 31
0
999
- - - Line Data - - -
  0
LINE
  8
0
 62
7
 10
319210.000
 20
595000.977
 30
0
 11
318915.698
 21
595000.977
 31
0
  0
LINE
  8
0
 62
7
 10
318915.698
 20
595000.977
 30
0
 11
319210.000
 21
597943.994
 31
0
  0
LINE
  8
0
 62
7
 10
319210.000
 20
597943.994
 30
0
 11
319710.000
 21
598166.504
 31
0
  0
LINE
  8
0
 62
7
 10
319710.000
 20
598166.504
 30
0
 11
319760.000
 21
597916.504
 31
0
  0
LINE
  8
0
 62
7
 10
319760.000
 20
597916.504
 30
0
 11
319760.000
 21
595000.977
 31
0
  0
LINE
  8
0
 62
7
 10
319760.000
 20
595000.977
 30
0
 11
319710.000
 21
595000.977
 31
0
999
- - - Line Data - - -
  0
LINE
  8
0
 62
7
 10
336540.000
 20
596350.977
 30
0
 11
336540.000
 21
600650.000
 31
0
  0
LINE
  8
0
 62
7
 10
336540.000
 20
600650.000
 30
0
 11
337490.000
 21
600614.648
 31
0
  0
LINE
  8
0
 62
7
 10
337490.000
 20
600614.648
 30
0
 11
337490.000
 21
596500.977
 31
0
999
- - - Line Data - - -
  0
LINE
  8
0
 62
7
 10
299920.000
 20
593800.000
 30
0
 11
309920.000
 21
593900.000
 31
0
  0
LINE
  8
0
 62
7
 10
309920.000
 20
593900.000
 30
0
 11
311470.000
 21
594000.000
 31
0
  0
LINE
  8
0
 62
7
 10
311470.000
 20
594000.000
 30
0
 11
311780.000
 21
594029.980
 31
0
  0
LINE
  8
0
 62
7
 10
311780.000
 20
594029.980
 30
0
 11
312780.000
 21
594100.000
 31
0
  0
LINE
  8
0
 62
7
 10
312780.000
 20
594100.000
 30
0
 11
315930.000
 21
594400.000
 31
0
  0
LINE
  8
0
 62
7
 10
315930.000
 20
594400.000
 30
0
 11
318810.000
 21
595000.977
 31
0
  0
LINE
  8
0
 62
7
 10
318810.000
 20
595000.977
 30
0
 11
319210.000
 21
595000.977
 31
0
  0
LINE
  8
0
 62
7
 10
319210.000
 20
595000.977
 30
0
 11
319710.000
 21
595000.977
 31
0
  0
LINE
  8
0
 62
7
 10
319710.000
 20
595000.977
 30
0
 11
319760.000
 21
595000.977
 31
0
  0
LINE
  8
0
 62
7
 10
319760.000
 20
595000.977
 30
0
 11
327540.000
 21
595700.977
 31
0
  0
LINE
  8
0
 62
7
 10
327540.000
 20
595700.977
 30
0
 11
331820.000
 21
596100.977
 31
0
  0
LINE
  8
0
 62
7
 10
331820.000
 20
596100.977
 30
0
 11
336390.000
 21
596350.977
 31
0
  0
LINE
  8
0
 62
7
 10
336390.000
 20
596350.977
 30
0
 11
336540.000
 21
596350.977
 31
0
  0
LINE
  8
0
 62
7
 10
336540.000
 20
596350.977
 30
0
 11
337490.000
 21
596500.977
 31
0
  0
LINE
  8
0
 62
7
 10
337490.000
 20
596500.977
 30
0
 11
337590.000
 21
596500.977
 31
0
  0
LINE
  8
0
 62
7
 10
337590.000
 20
596500.977
 30
0
 11
340640.000
 21
596700.977
 31
0
999
- - - Symbol Data - - -
  0
LINE
  8
0
 62
7
 10
299709.011
 20
593778.901
 30
0
 11
299709.011
 21
593821.099
 31
0
  0
LINE
  8
0
 62
7
 10
299709.011
 20
593821.099
 30
0
 11
300130.989
 21
593821.099
 31
0
  0
LINE
  8
0
 62
7
 10
300130.989
 20
593821.099
 30
0
 11
300130.989
 21
593778.901
 31
0
  0
LINE
  8
0
 62
7
 10
300130.989
 20
593778.901
 30
0
 11
299709.011
 21
593778.901
 31
0
  0
LINE
  8
0
 62
7
 10
309709.011
 20
593878.901
 30
0
 11
309709.011
 21
593921.099
 31
0
  0
LINE
  8
0
 62
7
 10
309709.011
 20
593921.099
 30
0
 11
310130.989
 21
593921.099
 31
0
  0
LINE
  8
0
 62
7
 10
310130.989
 20
593921.099
 30
0
 11
310130.989
 21
593878.901
 31
0
  0
LINE
  8
0
 62
7
 10
310130.989
 20
593878.901
 30
0
 11
309709.011
 21
593878.901
 31
0
  0
LINE
  8
0
 62
7
 10
311259.011
 20
593978.901
 30
0
 11
311259.011
 21
594021.099
 31
0
  0
LINE
  8
0
 62
7
 10
311259.011
 20
594021.099
 30
0
 11
311680.989
 21
594021.099
 31
0
  0
LINE
  8
0
 62
7
 10
311680.989
 20
594021.099
 30
0
 11
311680.989
 21
593978.901
 31
0
  0
LINE
  8
0
 62
7
 10
311680.989
 20
593978.901
 30
0
 11
311259.011
 21
593978.901
 31
0
  0
LINE
  8
0
 62
7
 10
311569.011
 20
594008.882
 30
0
 11
311569.011
 21
594051.079
 31
0
  0
LINE
  8
0
 62
7
 10
311569.011
 20
594051.079
 30
0
 11
311990.989
 21
594051.079
 31
0
  0
LINE
  8
0
 62
7
 10
311990.989
 20
594051.079
 30
0
 11
311990.989
 21
594008.882
 31
0
  0
LINE
  8
0
 62
7
 10
311990.989
 20
594008.882
 30
0
 11
311569.011
 21
594008.882
 31
0
  0
LINE
  8
0
 62
7
 10
312569.011
 20
594078.901
 30
0
 11
312569.011
 21
594121.099
 31
0
  0
LINE
  8
0
 62
7
 10
312569.011
 20
594121.099
 30
0
 11
312990.989
 21
594121.099
 31
0
  0
LINE
  8
0
 62
7
 10
312990.989
 20
594121.099
 30
0
 11
312990.989
 21
594078.901
 31
0
  0
LINE
  8
0
 62
7
 10
312990.989
 20
594078.901
 30
0
 11
312569.011
 21
594078.901
 31
0
  0
LINE
  8
0
 62
7
 10
315719.011
 20
594378.901
 30
0
 11
315719.011
 21
594421.099
 31
0
  0
LINE
  8
0
 62
7
 10
315719.011
 20
594421.099
 30
0
 11
316140.989
 21
594421.099
 31
0
  0
LINE
  8
0
 62
7
 10
316140.989
 20
594421.099
 30
0
 11
316140.989
 21
594378.901
 31
0
  0
LINE
  8
0
 62
7
 10
316140.989
 20
594378.901
 30
0
 11
315719.011
 21
594378.901
 31
0
  0
LINE
  8
0
 62
7
 10
318599.011
 20
594979.878
 30
0
 11
318599.011
 21
595022.075
 31
0
  0
LINE
  8
0
 62
7
 10
318599.011
 20
595022.075
 30
0
 11
319020.989
 21
595022.075
 31
0
  0
LINE
  8
0
 62
7
 10
319020.989
 20
595022.075
 30
0
 11
319020.989
 21
594979.878
 31
0
  0
LINE
  8
0
 62
7
 10
319020.989
 20
594979.878
 30
0
 11
318599.011
 21
594979.878
 31
0
  0
LINE
  8
0
 62
7
 10
318999.011
 20
594979.878
 30
0
 11
318999.011
 21
595022.075
 31
0
  0
LINE
  8
0
 62
7
 10
318999.011
 20
595022.075
 30
0
 11
319420.989
 21
595022.075
 31
0
  0
LINE
  8
0
 62
7
 10
319420.989
 20
595022.075
 30
0
 11
319420.989
 21
594979.878
 31
0
  0
LINE
  8
0
 62
7
 10
319420.989
 20
594979.878
 30
0
 11
318999.011
 21
594979.878
 31
0
  0
LINE
  8
0
 62
7
 10
319499.011
 20
594979.878
 30
0
 11
319499.011
 21
595022.075
 31
0
  0
LINE
  8
0
 62
7
 10
319499.011
 20
595022.075
 30
0
 11
319920.989
 21
595022.075
 31
0
  0
LINE
  8
0
 62
7
 10
319920.989
 20
595022.075
 30
0
 11
319920.989
 21
594979.878
 31
0
  0
LINE
  8
0
 62
7
 10
319920.989
 20
594979.878
 30
0
 11
319499.011
 21
594979.878
 31
0
  0
LINE
  8
0
 62
7
 10
319549.011
 20
594979.878
 30
0
 11
319549.011
 21
595022.075
 31
0
  0
LINE
  8
0
 62
7
 10
319549.011
 20
595022.075
 30
0
 11
319970.989
 21
595022.075
 31
0
  0
LINE
  8
0
 62
7
 10
319970.989
 20
595022.075
 30
0
 11
319970.989
 21
594979.878
 31
0
  0
LINE
  8
0
 62
7
 10
319970.989
 20
594979.878
 30
0
 11
319549.011
 21
594979.878
 31
0
  0
LINE
  8
0
 62
7
 10
327329.011
 20
595679.878
 30
0
 11
327329.011
 21
595722.075
 31
0
  0
LINE
  8
0
 62
7
 10
327329.011
 20
595722.075
 30
0
 11
327750.989
 21
595722.075
 31
0
  0
LINE
  8
0
 62
7
 10
327750.989
 20
595722.075
 30
0
 11
327750.989
 21
595679.878
 31
0
  0
LINE
  8
0
 62
7
 10
327750.989
 20
595679.878
 30
0
 11
327329.011
 21
595679.878
 31
0
  0
LINE
  8
0
 62
7
 10
331609.011
 20
596079.878
 30
0
 11
331609.011
 21
596122.075
 31
0
  0
LINE
  8
0
 62
7
 10
331609.011
 20
596122.075
 30
0
 11
332030.989
 21
596122.075
 31
0
  0
LINE
  8
0
 62
7
 10
332030.989
 20
596122.075
 30
0
 11
332030.989
 21
596079.878
 31
0
  0
LINE
  8
0
 62
7
 10
332030.989
 20
596079.878
 30
0
 11
331609.011
 21
596079.878
 31
0
  0
LINE
  8
0
 62
7
 10
336179.011
 20
596329.878
 30
0
 11
336179.011
 21
596372.075
 31
0
  0
LINE
  8
0
 62
7
 10
336179.011
 20
596372.075
 30
0
 11
336600.989
 21
596372.075
 31
0
  0
LINE
  8
0
 62
7
 10
336600.989
 20
596372.075
 30
0
 11
336600.989
 21
596329.878
 31
0
  0
LINE
  8
0
 62
7
 10
336600.989
 20
596329.878
 30
0
 11
336179.011
 21
596329.878
 31
0
  0
LINE
  8
0
 62
7
 10
336329.011
 20
596329.878
 30
0
 11
336329.011
 21
596372.075
 31
0
  0
LINE
  8
0
 62
7
 10
336329.011
 20
596372.075
 30
0
 11
336750.989
 21
596372.075
 31
0
  0
LINE
  8
0
 62
7
 10
336750.989
 20
596372.075
 30
0
 11
336750.989
 21
596329.878
 31
0
  0
LINE
  8
0
 62
7
 10
336750.989
 20
596329.878
 30
0
 11
336329.011
 21
596329.878
 31
0
  0
LINE
  8
0
 62
7
 10
337279.011
 20
596479.878
 30
0
 11
337279.011
 21
596522.075
 31
0
  0
LINE
  8
0
 62
7
 10
337279.011
 20
596522.075
 30
0
 11
337700.989
 21
596522.075
 31
0
  0
LINE
  8
0
 62
7
 10
337700.989
 20
596522.075
 30
0
 11
337700.989
 21
596479.878
 31
0
  0
LINE
  8
0
 62
7
 10
337700.989
 20
596479.878
 30
0
 11
337279.011
 21
596479.878
 31
0
  0
LINE
  8
0
 62
7
 10
337379.011
 20
596479.878
 30
0
 11
337379.011
 21
596522.075
 31
0
  0
LINE
  8
0
 62
7
 10
337379.011
 20
596522.075
 30
0
 11
337800.989
 21
596522.075
 31
0
  0
LINE
  8
0
 62
7
 10
337800.989
 20
596522.075
 30
0
 11
337800.989
 21
596479.878
 31
0
  0
LINE
  8
0
 62
7
 10
337800.989
 20
596479.878
 30
0
 11
337379.011
 21
596479.878
 31
0
  0
LINE
  8
0
 62
7
 10
340429.011
 20
596679.878
 30
0
 11
340429.011
 21
596722.075
 31
0
  0
LINE
  8
0
 62
7
 10
340429.011
 20
596722.075
 30
0
 11
340850.989
 21
596722.075
 31
0
  0
LINE
  8
0
 62
7
 10
340850.989
 20
596722.075
 30
0
 11
340850.989
 21
596679.878
 31
0
  0
LINE
  8
0
 62
7
 10
340850.989
 20
596679.878
 30
0
 11
340429.011
 21
596679.878
 31
0
999
- - - Line Data - - -
  0
LINE
  8
0
 62
4
 10
299920.000
 20
596079.688
 30
0
 11
309920.000
 21
596704.443
 31
0
  0
LINE
  8
0
 62
4
 10
309920.000
 20
596704.443
 30
0
 11
311470.000
 21
596536.963
 31
0
  0
LINE
  8
0
 62
4
 10
311470.000
 20
596536.963
 30
0
 11
311780.000
 21
596681.494
 31
0
  0
LINE
  8
0
 62
4
 10
311780.000
 20
596681.494
 30
0
 11
312780.000
 21
596857.520
 31
0
  0
LINE
  8
0
 62
4
 10
312780.000
 20
596857.520
 30
0
 11
315930.000
 21
596866.748
 31
0
  0
LINE
  8
0
 62
4
 10
315930.000
 20
596866.748
 30
0
 11
318810.000
 21
596843.604
 31
0
  0
LINE
  8
0
 62
4
 10
318810.000
 20
596843.604
 30
0
 11
319210.000
 21
596848.535
 31
0
  0
LINE
  8
0
 62
4
 10
319210.000
 20
596848.535
 30
0
 11
319710.000
 21
596859.668
 31
0
  0
LINE
  8
0
 62
4
 10
319710.000
 20
596859.668
 30
0
 11
319760.000
 21
596866.016
 31
0
  0
LINE
  8
0
 62
4
 10
319760.000
 20
596866.016
 30
0
 11
327540.000
 21
597105.371
 31
0
  0
LINE
  8
0
 62
4
 10
327540.000
 20
597105.371
 30
0
 11
331820.000
 21
597449.463
 31
0
  0
LINE
  8
0
 62
4
 10
331820.000
 20
597449.463
 30
0
 11
336390.000
 21
597947.949
 31
0
  0
LINE
  8
0
 62
4
 10
336390.000
 20
597947.949
 30
0
 11
336540.000
 21
597967.578
 31
0
  0
LINE
  8
0
 62
4
 10
336540.000
 20
597967.578
 30
0
 11
337490.000
 21
598365.234
 31
0
  0
LINE
  8
0
 62
4
 10
337490.000
 20
598365.234
 30
0
 11
337590.000
 21
598376.172
 31
0
  0
LINE
  8
0
 62
4
 10
337590.000
 20
598376.172
 30
0
 11
340640.000
 21
598460.059
 31
0
999
- - - Symbol Data - - -
  0
LINE
  8
0
 62
4
 10
299709.011
 20
596065.622
 30
0
 11
300130.989
 21
596065.622
 31
0
  0
LINE
  8
0
 62
4
 10
299920.000
 20
596107.819
 30
0
 11
300130.989
 21
596065.622
 31
0
  0
LINE
  8
0
 62
4
 10
299920.000
 20
596107.819
 30
0
 11
299709.011
 21
596065.622
 31
0
  0
LINE
  8
0
 62
4
 10
309709.011
 20
596690.377
 30
0
 11
310130.989
 21
596690.377
 31
0
  0
LINE
  8
0
 62
4
 10
309920.000
 20
596732.575
 30
0
 11
310130.989
 21
596690.377
 31
0
  0
LINE
  8
0
 62
4
 10
309920.000
 20
596732.575
 30
0
 11
309709.011
 21
596690.377
 31
0
  0
LINE
  8
0
 62
4
 10
311259.011
 20
596522.897
 30
0
 11
311680.989
 21
596522.897
 31
0
  0
LINE
  8
0
 62
4
 10
311470.000
 20
596565.095
 30
0
 11
311680.989
 21
596522.897
 31
0
  0
LINE
  8
0
 62
4
 10
311470.000
 20
596565.095
 30
0
 11
311259.011
 21
596522.897
 31
0
  0
LINE
  8
0
 62
4
 10
311569.011
 20
596667.428
 30
0
 11
311990.989
 21
596667.428
 31
0
  0
LINE
  8
0
 62
4
 10
311780.000
 20
596709.626
 30
0
 11
311990.989
 21
596667.428
 31
0
  0
LINE
  8
0
 62
4
 10
311780.000
 20
596709.626
 30
0
 11
311569.011
 21
596667.428
 31
0
  0
LINE
  8
0
 62
4
 10
312569.011
 20
596843.454
 30
0
 11
312990.989
 21
596843.454
 31
0
  0
LINE
  8
0
 62
4
 10
312780.000
 20
596885.651
 30
0
 11
312990.989
 21
596843.454
 31
0
  0
LINE
  8
0
 62
4
 10
312780.000
 20
596885.651
 30
0
 11
312569.011
 21
596843.454
 31
0
  0
LINE
  8
0
 62
4
 10
315719.011
 20
596852.682
 30
0
 11
316140.989
 21
596852.682
 31
0
  0
LINE
  8
0
 62
4
 10
315930.000
 20
596894.880
 30
0
 11
316140.989
 21
596852.682
 31
0
  0
LINE
  8
0
 62
4
 10
315930.000
 20
596894.880
 30
0
 11
315719.011
 21
596852.682
 31
0
  0
LINE
  8
0
 62
4
 10
318599.011
 20
596829.538
 30
0
 11
319020.989
 21
596829.538
 31
0
  0
LINE
  8
0
 62
4
 10
318810.000
 20
596871.735
 30
0
 11
319020.989
 21
596829.538
 31
0
  0
LINE
  8
0
 62
4
 10
318810.000
 20
596871.735
 30
0
 11
318599.011
 21
596829.538
 31
0
  0
LINE
  8
0
 62
4
 10
318999.011
 20
596834.469
 30
0
 11
319420.989
 21
596834.469
 31
0
  0
LINE
  8
0
 62
4
 10
319210.000
 20
596876.667
 30
0
 11
319420.989
 21
596834.469
 31
0
  0
LINE
  8
0
 62
4
 10
319210.000
 20
596876.667
 30
0
 11
318999.011
 21
596834.469
 31
0
  0
LINE
  8
0
 62
4
 10
319499.011
 20
596845.602
 30
0
 11
319920.989
 21
596845.602
 31
0
  0
LINE
  8
0
 62
4
 10
319710.000
 20
596887.800
 30
0
 11
319920.989
 21
596845.602
 31
0
  0
LINE
  8
0
 62
4
 10
319710.000
 20
596887.800
 30
0
 11
319499.011
 21
596845.602
 31
0
  0
LINE
  8
0
 62
4
 10
319549.011
 20
596851.950
 30
0
 11
319970.989
 21
596851.950
 31
0
  0
LINE
  8
0
 62
4
 10
319760.000
 20
596894.147
 30
0
 11
319970.989
 21
596851.950
 31
0
  0
LINE
  8
0
 62
4
 10
319760.000
 20
596894.147
 30
0
 11
319549.011
 21
596851.950
 31
0
  0
LINE
  8
0
 62
4
 10
327329.011
 20
597091.305
 30
0
 11
327750.989
 21
597091.305
 31
0
  0
LINE
  8
0
 62
4
 10
327540.000
 20
597133.503
 30
0
 11
327750.989
 21
597091.305
 31
0
  0
LINE
  8
0
 62
4
 10
327540.000
 20
597133.503
 30
0
 11
327329.011
 21
597091.305
 31
0
  0
LINE
  8
0
 62
4
 10
331609.011
 20
597435.397
 30
0
 11
332030.989
 21
597435.397
 31
0
  0
LINE
  8
0
 62
4
 10
331820.000
 20
597477.595
 30
0
 11
332030.989
 21
597435.397
 31
0
  0
LINE
  8
0
 62
4
 10
331820.000
 20
597477.595
 30
0
 11
331609.011
 21
597435.397
 31
0
  0
LINE
  8
0
 62
4
 10
336179.011
 20
597933.883
 30
0
 11
336600.989
 21
597933.883
 31
0
  0
LINE
  8
0
 62
4
 10
336390.000
 20
597976.081
 30
0
 11
336600.989
 21
597933.883
 31
0
  0
LINE
  8
0
 62
4
 10
336390.000
 20
597976.081
 30
0
 11
336179.011
 21
597933.883
 31
0
  0
LINE
  8
0
 62
4
 10
336329.011
 20
597953.512
 30
0
 11
336750.989
 21
597953.512
 31
0
  0
LINE
  8
0
 62
4
 10
336540.000
 20
597995.710
 30
0
 11
336750.989
 21
597953.512
 31
0
  0
LINE
  8
0
 62
4
 10
336540.000
 20
597995.710
 30
0
 11
336329.011
 21
597953.512
 31
0
  0
LINE
  8
0
 62
4
 10
337279.011
 20
598351.168
 30
0
 11
337700.989
 21
598351.168
 31
0
  0
LINE
  8
0
 62
4
 10
337490.000
 20
598393.366
 30
0
 11
337700.989
 21
598351.168
 31
0
  0
LINE
  8
0
 62
4
 10
337490.000
 20
598393.366
 30
0
 11
337279.011
 21
598351.168
 31
0
  0
LINE
  8
0
 62
4
 10
337379.011
 20
598362.106
 30
0
 11
337800.989
 21
598362.106
 31
0
  0
LINE
  8
0
 62
4
 10
337590.000
 20
598404.304
 30
0
 11
337800.989
 21
598362.106
 31
0
  0
LINE
  8
0
 62
4
 10
337590.000
 20
598404.304
 30
0
 11
337379.011
 21
598362.106
 31
0
  0
LINE
  8
0
 62
4
 10
340429.011
 20
598445.993
 30
0
 11
340850.989
 21
598445.993
 31
0
  0
LINE
  8
0
 62
4
 10
340640.000
 20
598488.190
 30
0
 11
340850.989
 21
598445.993
 31
0
  0
LINE
  8
0
 62
4
 10
340640.000
 20
598488.190
 30
0
 11
340429.011
 21
598445.993
 31
0
  0
ENDSEC
  0
EOF
